Song name
# A B C D E F G H I J K L M N O P Q R S T U V W X Y Z

Tomahawk - Cradle Song tab

-------------------------------------------------------------------------------
			     CRADLE SONG - Tomahawk
-------------------------------------------------------------------------------


Tabbed by: Martin


Tuning: Standard


Part I

(0:08)

-------------------------|
-------------------------|
--1---2--1---2--1---2-1--|
----3------3------3------|
-------------------------|
-------------------------|

Part II

(0:17)

---------------------------|
--1------------------------|
----1---2--1---2--1---2-1--|
------3------3------3------|
---------------------------|
---------------------------|

Part III

(0:37)

--------------------|
--1-----------------|
----1---2--1---2-1--|
------3------3------|
--------------------|
--------------------|

Part IV

(0:48)

--------------------------------------------------------|
-------------------------1---------------------------1--|
--1---2--1---2--1---2-1------1---2--1---2-1-----2-1-----|
----3------3------1-------------------------------------|
-------------------------------4------4-------1---------|
--------------------------------------------------------|

Part V

(1:20)

----------------------------------------|
----------1-----------------------------|
--1---2-1--------1---0---1---0---1---0--|
----------------------------------------|
----------------------------------------|
----4--------------3-------3-------3----|


Guitar II (or Bass):

Part I:

f

Part II (0:48):

f-d#-c#-a#

Part III (1:20):

g#-g
Tap to rate this tab
 
# A B C D E F G H I J K L M N O P Q R S T U V W X Y Z