Song name
# A B C D E F G H I J K L M N O P Q R S T U V W X Y Z

Tomcat - Tough Boy Hocuto No Ken tab

Q=85
4/4
Gtr I
W S S S S S S S S +E. S +S S S S S S S S S S S S +E. S +S S S S
|----------|-----5-----5---------------------|-----5-----5---------------------|
|----------|-----5-----5---------------------|-----5-----5---------------------|
|----------|---------------------------------|---------------------------------|
|----------|-7-7-7-----2---------4-(4)-5-4---|-7-7-7-----2---------4-(4)-5-4---|
|----------|-0-0-7-----0-------------------5-|-----7-----0-------------------5-|
|----------|-----5---5-----3-(3)-------------|-5-5-5---5-----3-(3)-------------|


S S S S S S S S +E. S +S S S S S S S S S S S S H
|-----5-----5---------------------|-----5---------3------|
|-----5-----5---------------------|-----5---5-5-5--------|
|---------------------------------|---------------0------|
|-7-7-7-----2---------4-(4)-5-4---|-7-7-7---7-7-7--------|
|-----7-----0-------------------5-|-----7---0-7-0--------|
|-5-5-5---5-----3-(3)-------------|-5-5-5-----5---3------|


S S S S S S S S +E. S +S S S S S S S S S S S S +E. S +S S S S
|-5-5-5---------------------------|---------------------------------|
|-5-5-5---------------------------|-----5-----5---------------------|
|-2-2-----------------------------|---------------------------------|
|-----2-----2---------4-(4)-5-4---|-----7-----7---------4-(4)-5-4---|
|-----0---0-0-------------------5-|-----7-----7-------------------5-|
|-5-------------3-(3)-------------|-5-5-5---5-5---3-(3)-------------|


S S S S S S S S +E. S +S S S S S S S S S S S S +E E Q
|---------------------------------|-----5---5-5---------------|
|---------------------------------|-----5---5-5---------------|
|---------------------------------|---------------------------|
|-----7-----7---------4-(4)-5-4---|-----7---7-7---------------|
|-----7-----7-------------------5-|-----7---7-7-7-5-(5)-------|
|-5-5-5---5-5---3-(3)-------------|-5-5-5---5-----3-(3)-------|


S S S S S S S S +E. S +S S S S S S S S S S S S +E. S +S S S S
|-5-5-5---------------------------|---------------------------------|
|-5-5-5---------------------------|-----5-----5---------------------|
|-2-2-----------------------------|---------------------------------|
|-----2-----2---------4-(4)-5-4---|-----7-----7---------4-(4)-5-4---|
|-----0---0-0-------------------5-|-----7-----7-------------------5-|
|-5-------------3-(3)-------------|-5-5-5---5-5---3-(3)-------------|


S S S S S S S S +E. S +S S S S S S S S S S S S +E. S +S S S S
|---------------------------------|-----5-----5---------------------|
|---------------------------------|-----5-----5---------------------|
|---------------------------------|---------------------------------|
|-----7-----7---------4-(4)-5-4---|-7-7-7-----2---------4-(4)-5-4---|
|-----7-----7-------------------5-|-0---7-----0-------------------5-|
|-5-5-5---5-5---3-(3)-------------|-5-5-5---5-----3-(3)-------------|

Tablature for 's 1 - toughboy


S S S S S S S S +E. S +S S S S S S S S S S S S +E. S +S S S S
|-----5-----5---------------------|-----5-----5---------------------|
|-----5-----5---------------------|-----5-----5---------------------|
|---------------------------------|---------------------------------|
|-7-7-7-----2---------4-(4)-5-4---|-7-7-7-----2---------4-(4)-5-4---|
|-----7-----0-------------------5-|-----7-----0-------------------5-|
|-5-5-5---5-----3-(3)-------------|-5-5-5---5-----3-(3)-------------|


S S S S S S S S +E. S +S S S S S S S S S S S S +S S S S S S S S


|-----5-----5---------------------|------------------------------------|
|-----5-----5---------------------|------------------------------------|
|---------------------------------|-----2------------------------------|
|-7-7-7-----2---------4-(4)-5-4---|-----2-----2------------------------|
|-----7-----0-------------------5-|-----0---0-0-0-------5-3-2-3-2-0----|
|-5-5-5---5-----3-(3)-------------|-5-5-5-----5---3-(3)-------------3--|


S S S S S S S S S S S S S S S S S S S S S S S S S S S S S S E
|---------------------------------|-------------------------------|
|-----5-------5-------5-------5---|-----3-------------------------|
|---------------------------------|-------------7-------7-------7-|
|-2-2-2---2-2-2---2-2-2---2-2-2---|-0-0-0-------------------------|
|-2-2-----2-2-----2-2-----2-2-----|-0-0-----5-5-5---5-5-5---5-5-5-|
|---------------------------------|---------5-5-----5-5-----5-5---|


S S S S S S S S S S S S S S S S S S E S S S S S S S S S E S
|---------------------------------|------------------------------|
|-----5-------5-------5-------5---|-----3-----3-------3-3--------|
|---------------------------------|-----2-----2-------2----------|
|-----2-------2-------2-------2---|-0-0-0-0-0-0---0-0-0-0--------|
|-3-3-3---3-3-3---3-3-3---3-3-3---|-----------------------5-5----|
|---------------------------------|------------------------------|


H +H H +H H +H H +Q +S S E
|-------------|-------------|-------------|--------------------|
|-------------|-------------|-------------|--------------------|
|-------------|-------------|-------------|-7----(7)--(7)------|
|-5----(5)----|-2----(2)----|-5----(5)----|-4----(4)--(4)------|
|-5----(5)----|-------------|-3----(3)----|-5----(5)--(5)------|
|-3----(3)----|-0----(0)----|-------------|--------------------|


H +H H +H H +H H +Q +S S E
|-------------|-------------|-------------|--------------------|
|-------------|-------------|-------------|--------------------|
|-------------|-------------|-5----(5)----|-7----(7)--(7)------|
|-5----(5)----|-2----(2)----|-5----(5)----|-4----(4)--(4)------|
|-5----(5)----|-------------|-3----(3)----|-5----(5)--(5)------|
|-3----(3)----|-0----(0)----|-------------|--------------------|
H +H H +H H +H H +Q +S S E
|-------------|-------------|-------------|--------------------|
|-------------|-------------|-8----(8)----|--------------------|
|-------------|-------------|-0----(0)----|-7----(7)--(7)------|
|-5----(5)----|-2----(2)----|-------------|-0----(0)--(0)------|
|-5----(5)----|-------------|-------------|-9----(9)--(9)------|
|-3----(3)----|-0----(0)----|-8----(8)----|--------------------|


S S S S S S S S +E. S +S S S S S S S S S S S S +E. S +S S S S
|------------------------------------|---------------------------------|
|-10-10-10---------------------------|-----5-----5---------------------|
|--9--9--9---------------------------|---------------------------------|
|--7--7------------------4-(4)-5-4---|-----7-----7---------4-(4)-5-4---|
|--0-----0-----7-------------------5-|-----7-----7-------------------5-|
|-------12---5-5---3-(3)-------------|-5-5-5---5-5---3-(3)-------------|


|---------------------------------|-----5---5-5----------------------|
|---------------------------------|-----5---5-5----------------------|
|---------------------------------|-----------------4-5-4-5-4-5-4-5--|
|-----7-----7---------4-(4)-5-4---|-----7---7-7-------5-5-5-5-5-5-5--|
|-----7-----7-------------------5-|-----7---7-7-7-5------------------|
|-5-5-5---5-5---3-(3)-------------|-5-5-5---5-----3------------------|


S S S S S S S S +E. S +S S S S S S S S S S S S +E. S +S S S S
|-5-5-5---------------------------|---------------------------------|
|-5-5-5---------------------------|-----5-----5---------------------|
|-0-------------------------------|---------------------------------|
|-7-7-2-----2---------4-(4)-5-4---|-----7-----7---------4-(4)-5-4---|
|-0---0---0-0-------------------5-|-----7-----7-------------------5-|
|---------------3-(3)-------------|-5-5-5---5-5---3-(3)-------------|


S S S S S S S S +E. S +S S S S S S S S S S S S +E. S +S S S S
|---------------------------------|-----5-----5---------------------|
|---------------------------------|-----5-----5---------------------|
|---------------------------------|---------------------------------|
|-----7-----7---------4-(4)-5-4---|-7-7-7-----2---------4-(4)-5-4---|
|-----7-----7-------------------5-|-0---7-----0-------------------5-|
|-5-5-5---5-5---3-(3)-------------|-5-5-5---5-----3-(3)-------------|


S S S S S S S S +E. S +S S S S S S S S S S S S +E. S +S S S S
|-----5-----5---------------------|-----5-----5---------------------|
|-----5-----5---------------------|-----5-----5---------------------|
|---------------------------------|---------------------------------|
|-7-7-7-----2---------4-(4)-5-4---|-7-7-7-----2---------4-(4)-5-4---|
|-----7-----0-------------------5-|-----7-----0-------------------5-|
|-5-5-5---5-----3-(3)-------------|-5-5-5---5-----3-(3)-------------|


S S S S S S S S +E. S +S S S S S S S S S S S S +S S S S S S S S
|-----5-----5---------------------|------------------------------------|
|-----5-----5---------------------|------------------------------------|
|---------------------------------|-----2------------------------------|
|-7-7-7-----2---------4-(4)-5-4---|-----2-----2------------------------|
|-----7-----0-------------------5-|-----0---0-0-0-------5-3-2-3-2-0----|
|-5-5-5---5-----3-(3)-------------|-5-5-5-----5---3-(3)-------------3--|


S S S S S S S S S S S S S S S S S S S S S S S S S S S S S S E
|---------------------------------|-------------------------------|
|-----5-------5-------5-------5---|-----3-------------------------|
|---------------------------------|-------------7-------7-------7-|
|-2-2-2---2-2-2---2-2-2---2-2-2---|-0-0-0-------------------------|
|-2-2-----2-2-----2-2-----2-2-----|-0-0-----5-5-5---5-5-5---5-5-5-|
|---------------------------------|---------5-5-----5-5-----5-5---|


S S S S S S S S S S S S S S S S S S E S S S S S S S S S E S
|---------------------------------|------------------------------|
|-----5-------5-------5-------5---|-----3-----3-------3-3--------|
|---------------------------------|-----2-----2-------2----------|
|-----2-------2-------2-------2---|-0-0-0-0-0-0---0-0-0-0--------|
|-3-3-3---3-3-3---3-3-3---3-3-3---|-----------------------5-5----|
|---------------------------------|------------------------------|


H +H H +H H +H H +Q +S S E
|-------------|-------------|-------------|--------------------|
|-------------|-------------|-------------|--------------------|
|-------------|-------------|-------------|-7----(7)--(7)------|
| 5 (5) | 2 (2) | 5 (5) | 4 (4) (4) |



Tablature for 's 1 - toughboy
| 5 (5) | 2 (2) | 5 (5) | 4 (4) (4) |
|-5----(5)----|-------------|-3----(3)----|-5----(5)--(5)------|
|-3----(3)----|-0----(0)----|-------------|--------------------|


H +H H +H H +H H +Q +S S E
|-------------|-------------|-------------|--------------------|
|-------------|-------------|-------------|--------------------|
|-------------|-------------|-5----(5)----|-7----(7)--(7)------|
|-5----(5)----|-2----(2)----|-5----(5)----|-4----(4)--(4)------|
|-5----(5)----|-------------|-3----(3)----|-5----(5)--(5)------|
|-3----(3)----|-0----(0)----|-------------|--------------------|


H +H H +H H +H H +Q +S S E
|-------------|-------------|-------------|--------------------|
|-------------|-------------|-3----(3)----|--------------------|
|-------------|-------------|-5----(5)----|-7----(7)--(7)------|
|-5----(5)----|-2----(2)----|-5----(5)----|-4----(4)--(4)------|
|-5----(5)----|-------------|-3----(3)----|-5----(5)--(5)------|
|-3----(3)----|-0----(0)----|-------------|--------------------|


H +H H +H H +H H +Q +S S E
|-------------|-------------|-------------|--------------------|
|-------------|-------------|-3----(3)----|--------------------|
|-------------|-------------|-5----(5)----|-7----(7)--(7)------|
|-5----(5)----|-2----(2)----|-5----(5)----|-4----(4)--(4)------|
|-5----(5)----|-------------|-3----(3)----|-5----(5)--(5)------|
|-3----(3)----|-0----(0)----|-------------|--------------------|
H +H H +H H +H H +Q +S S E



|-------------|-------------|-------------|--------------------|
|-------------|-------------|-------------|--------------------|
|-------------|-------------|-5----(5)----|-7----(7)--(7)------|
|-5----(5)----|-2----(2)----|-5----(5)----|-4----(4)--(4)------|
|-5----(5)----|-------------|-3----(3)----|-5----(5)--(5)------|
|-3----(3)----|-0----(0)----|-------------|--------------------|


H +H H +H H +H H +Q +S S E
|-------------|-------------|-------------|--------------------|
|-------------|-------------|-------------|--------------------|
|-------------|-------------|-5----(5)----|-7----(7)--(7)------|
|-5----(5)----|-2----(2)----|-5----(5)----|-4----(4)--(4)------|
|-5----(5)----|-------------|-3----(3)----|-5----(5)--(5)------|
|-3----(3)----|-0----(0)----|-------------|--------------------|
H +H H +H H +H H +Q +S S E
|-------------|-------------|-------------|--------------------|
|-------------|-------------|-------------|--------------------|
|-------------|-------------|-5----(5)----|-7----(7)--(7)------|
|-5----(5)----|-2----(2)----|-5----(5)----|-4----(4)--(4)------|
|-5----(5)----|-------------|-3----(3)----|-5----(5)--(5)------|
|-3----(3)----|-0----(0)----|-------------|--------------------|



S S S S S S S S +E. S +S S S S S S S S S S S S +E. S +S S S S
|-5-5-5---------------------------|---------------------------------|
|-5-5-5---------------------------|-----5-----5---------------------|
|---------------------------------|---------------------------------|
|-7-7-2-----2---------4-(4)-5-4---|-----7-----7---------4-(4)-5-4---|
|-0---0---0-0-------------------5-|-----7-----7-------------------5-|
|---------------3-(3)-------------|-5-5-5---5-5---3-(3)-------------|
S S S S S S S S +E. S +S S S S S S S S S S S S S S S S S S S S
|---------------------------------|----------------------------------|
|---------------------------------|----------------------------------|


Tablature for 's 1 - toughboy
| | |
|---------------------------------|-------------------------0--------|
|-----7-----7---------4-(4)-5-4---|-------0-----2-0---4-2-0---4-2-0--|
|-----7-----7-------------------5-|-3-2-0---3-2-----3----------------|
|-5-5-5---5-5---3-(3)-------------|-5--------------------------------|


S S E Q H
|---------------*|
|---------------*|
|---2-----------*|
|---2-----------*|
|-0-0-----------*|
|---------------*|



Duration Legend
---------------
W - whole; H - half; Q - quarter; E - 8th; S - 16th; T - 32nd; X - 64th; a - acciaccatura
+ - note tied to previous; . - note dotted; .. - note double dotted
Uncapitalized letters represent notes that are staccato (1/2 duration)
Irregular groupings are notated above the duration line
Duration letters will always appear directly above the note/fret number it represents the
duration for. Duration letters with no fret number below them represent rests. Multibar
rests are notated in the form Wxn, where n is the number of bars to rest for. Low
melody durations appear below the staff
Tablature Legend
----------------
h - hammer-on
p - pull-off
b - bend
pb - pre-bend
r - bend release (if no number after the r, then release immediately)
/\ - slide into or out of (from/to "nowhere")
s - legato slide
S - shift slide
 - natural harmonic
[n] - artificial harmonic
n(n) - tapped harmonic
~ - vibrato
tr - trill
T - tap
TP - trem. picking
PM - palm muting
\n/ - tremolo bar dip; n = amount to dip
\n - tremolo bar down
n/ - tremolo bar up
/n\ - tremolo bar inverted dip
= - hold bend; also acts as connecting device for hammers/pulls
<> - volume swell (louder/softer)
x - on rhythm slash represents muted slash
o - on rhythm slash represents single note slash
Misc Legend
-----------
| - bar
|| - double bar
||o - repeat start
o|| - repeat end
*| - double bar (ending)
: - bar (freetime)
$ - Segno
& - Coda
Tempo markers -  = BPM(8/16=s8/s16), where s8 = swing 8ths, s16 = swing
Tap to rate this tab
 
# A B C D E F G H I J K L M N O P Q R S T U V W X Y Z