Song name
# A B C D E F G H I J K L M N O P Q R S T U V W X Y Z

Tommy Emmanuel - Imagine tab

-------------------------------------------------------------------------------
			     Imagine-David Archuleta
-------------------------------------------------------------------------------

Email: Margs5242@aim.com

Standard tuning

I was so surprised to see that no one tabbed Archie's best night that i decided to do so myself!
i know this is 99.9% correct cause ive listened to this song a million times cause 
its AMAZING. theonly part im not certain about ill mark with question marks above
and you can listen and make
up your own thing to it. This is the tab for the first time he sang the song.

*= when pulling off the string below with your finger, also lightly hit the open string above

e|--2------|
B---2------|
G|--3------|    THIS IS THE IDK CHORD BECAUSE I DONT KNOW WHAT IT IS AND I DONT WANT
D|--2------|    TO LOOK IT UP =]
A|--x------|
E|--2------|

e|--------0h2p0---------0------------------------2------0-----------------------|
B|------3-------3-------2---------2-0------------3------2-------2--0------------|
G|----2-----------2---2---2-------2-0----------2-----2----------2--0------------|
D|--0---------------0----------------------0-0-----0----------------------------|
A|-----------------------------2-------0h2--------------------2-----------------|
E|---------------------------3------------------------------3-------------------|

e|------------------0h2p0---------0-------------------------0h2p0------------------|
B|-------0--------3-------3-------2-2------2-0------------3-------3----------------|
G|----0---0-----2-----------2---2----------2-0----------2-----------2--------------|
D|-----0---0--0---------------0---------------------0-0----------------------------|
A|---------------------------------------2------0h2--------------------------------|
E|--3----------------------------------3-------------------------------------------|

e|------0----------------------- 2--------0----------------------------------------|
B|------2-2-----2-0-----0-------3--------2----------2-0----------------------------|
G|----2---------2-0---0--0----2---2----2---2--------2-0----------------------------|
D|--0------------------0--0-0--------0---------------------------------------------|
A|------------2----------------------------------2---------------------------------|
E|----------3--------3-------------------------3-----------------------------------|

                                          ? ? ? ? ? ? ?
e|----------3-----2-----3------3--------0---------0-----0----------------------|
B|----------3-----3-----3------3--------2---------------2----------------------|
G|-----------------------------------------------2------2----------------------|
D|-------------------------0-4---4----2------2h4---2--- 2----------------------|
A|--------2-----2-----2-------------0-------0----------------------------------|
E|--0-2-3-----2-----0----------------------------------------------------------|

e|----------3-----0------2--------------3--------0*------2--------2------------|
B|----------3-----2------3-----2--------3------3p2------3------2---2-----------|
G|---------------------2-------3------------------2---2--------3----3----------|
D|--------------2----0-------2---2-----------2------0--------2-----------------|
A|--------2---0-----------------------2----0-----------------------------------|
E|--0-2-3------------------2--------3----------------------2-----2-------------|

e|------3-----0-----2---------------3-----0------2--------2-------------------------|
B|------3-----2-----3------2--------3-----2------3------2---------------------------|
G|----------------2--------3-------------------2--------3---------------------------|
D|----------2---0--------2---2----------2----0--------2-----------------------------|
A|----2---0-----------------------2---0---------------------------------------------|
E|--3------------------2--------3--------------------2------------------------------|

  here is where the strumming comes in. listen to the song for the pattern but for
  now ill just indicate the chord. the guitarist usually strums to top half of the chord
e|----------------------0--0-0-0------------------------------------------|
B|-----------STRUM G--- 2--2-0-2---STRUM D----STRUM IDK CHORD-------------|
G|----------------------2--2-2-2------------------------------------------|
D|----------------------2--2-2-2------------------------------------------|
A|--------2---------------------------------------------------------------|
E|--0-2-3------------------------------------2----------------------------|

e|------3---------------------------------------2-0-2--------------------|
B|------3--STRUM A---STRUM D WITHOUT TOP NOTE  3-3-3---------------------|
G|----------------------------------------------2-2-2--------------------|
D|----------------------------------------------0-0-0--------------------|
A|----2------------------------------------------------------------------|
E|--3--------------------------------------------------------------------|

e|------2----------------0--0-0-0-----------------------3---0------------|
B|------2------STRUM G--2--2-0-2--STRUM D-----2--------3---2-------------|
G|------3---------------2--2-2-2---------------3------------2------------|
D|----2-2---------------2--2-2-2-------------2---2--------0-2------------|
A|----------------------------------------------------2------0-----------|
E|--2------2-3------------------------------2-------3--------------------|
    End with playing around with the D chord

| /  slide up
| \  slide down
| h  hammer-on
| p  pull-off
| ~  vibrato
| +  harmonic
| x  Mute note
===============================================================================
Tap to rate this tab
 
# A B C D E F G H I J K L M N O P Q R S T U V W X Y Z