Song name
# A B C D E F G H I J K L M N O P Q R S T U V W X Y Z

Tommy Emmanuel - Angelina tab

Angelina
Tommy Emmanuel
Tabbed By Michael

When I Was Looking for A Tab To Learn This Song There Was Nothin!!!! I Had To Go On
And Watch What Tommy Was Doing And That Was Extremely Hard! Tommy Uses A Pick And His
For This... Cant Remember What Its Called, But I Just Fingerpick If It Helps... This Is 
A Shortened Version, Tommy Reapeats It But You Can Figure It Out Lol... Anyways This Is
90% Accurate... Hope Ya Like...

Drop D Tuning (DADGBE)
(Capo On 2nd Fret)

Intro

Whats Important Here Is To Make Sure You Let Every Note Ring...
e|------0-------------|--------------------|--------------------|
B|----3----------2----|--------0-----------|--------------------|
G|--2----------2------|------2--------2----|--------------------|
D|-----------0--------|----0--------0------|----0---------------|   x3
A|--------------------|--------------------|--0-----------------|
D|---------0----------|--4--------5--------|--------------------|

e|------0-------------|--------------------|
B|----3----------2----|--------0----0------|
G|--2----------2------|------2------2------|
D|-----------0--------|----0--------0------|
A|--------------------|--------------------|
D|---------0----------|--4----------5------|

Main Bit

Whats Tommy Does Here Is he Actually Picks The Chord, Then Plays The Notes In The Chord
It... Also He Tappes The Strings After Each Chord To Keep The Beat...

e|------0--0h2----5---|--------------------|--2--2--0-----------|
B|----3-----3-----2---|-------3------2-----|--3--------3--------|
G|--2-------------2---|-------4------0-----|--4--------5--------|
D|--------------------|----0--0---0--2-----|-----------5--------|
A|--------------------|--------------1--1--|--2--------3--3-----|
D|----------0-----4---|--4----5--5---------|--------------------|

e|--------------------|--0h2---5-----------|--0-----0----0h2----|
B|--3-----3--2--------|---3----2-------3---|--3-----3-----------|
G|--2-----1--2---2----|--------2-------0---|--0-----0----0h2----|
D|--0-----0--2--------|-------------0--4---|--------------------|
A|-----------0--0-----|----------------2-2-|--1--1--1-----------|
D|--3--3--2-----------|---0----4--4--------|--------------------|

e|--3--2--3s5--0h2h3--|--0-----------------|
B|--------------------|------------2s3--2--|
G|--4--2--4s6--2------|--1------1--3s4--2--|
D|--------------------|-------0----4s5--2--|
A|--------------------|------------0----0--|
D|--------------------|-----2--------------|

e|--0h2----5----------|--------------------|--2--2--0-----------|
B|---3-----2----------|-------3------2-----|--3--------3--------|
G|---------2----------|-------4------0-----|--4--------5--------|
D|--------------------|----0--0---0--2-----|-----------5--------|
A|--------------------|--------------1--1--|--2--------3--3-----|
D|---0-----4----------|--4----5--5---------|--------------------|

e|--------------------|
B|--3-----3--2--------|
G|--2-----1--2---2----|
D|--0-----0--2--------|
A|-----------0--0-----|
D|--3--3--2-----------|

e|--0h2--3------5-----|--7-------7----5h7--|--7--5--------------|
B|---3---3------2-----|--7------7-7---7----|--7--7--7s8--5s6--5-|
G|-------0------2-----|--5-----5---5-------|--------7----5----5-|
D|-----------0------0-|-------5------------|--------------------|
A|--------------------|------5-------------|--------------------|
D|---0---2--2---4--4--|--5------------5----|--5--5--5----3----3-|

e|--------------------|--------0-----0-----|
B|--------------------|----------2h3-------|
G|--0h2--0--2p0-------|--0h2---------------|
D|--0----0------4p2p0-|--0---0-------------|
A|--------------------|--------------------|
D|--------------------|--------------------|

Bridge

e|--------0---0-------|---------0----------|------0---5s2--0----|
B|------7---7-----7---|--7----7---7--------|----7---7-----------|
G|--------------7-----|-------------7------|--------------------|
D|----9---------------|-----8--------------|--7-----------------|
A|--------------------|----------------0---|--------------------|
D|--9-----------------|--8-----------------|------------------2-|

e|-------0------------|----------------0---|--------5-----------|
B|-------3------------|-------0-2-3--------|--3---3----3p2---0--|
G|----1--1------------|--0-2---------------|----2------2-----0--|
D|--0---------------0-|-----------0-0------|-----------4p2------|
A|--------------------|--------------------|-----------0--------|
D|-------2--2--4--5---|--------------------|--4--------------0--|

e|--------------------|--2h3p2-0-2--0------|
B|------0-2-3---------|-------------3------|
G|--0-2---------------|-------------3------|
D|----------0-0-------|--------------------|
A|--------------------|--------------------|
D|--------------2-----|--2-------2--5s9----|


e|--------0---0-------|---------0----------|------0---5s2--0----|
B|------7---7-----7---|--7----7---7--------|----7---7-----------|
G|--------------7-----|-------------7------|--------------------|
D|----9---------------|-----8--------------|--7-----------------|
A|--------------------|----------------0---|--------------------|
D|--9-----------------|--8-----------------|------------------2-|

e|-------0------------|----------------0---|----------5------5--|
B|-------3------------|-------0-2-3--------|--3-----3---3----3--|
G|----1--1------------|--0-2---------------|------2-------2--2--|
D|--0---------------0-|-----------0-0------|--------------------|
A|--------------------|--------------------|--------------------|
D|-------2--2--4--5---|--------------------|--4-4------------2--|

e|--5s4--2--2h4---10--|--9h10--9--5h7--5---|----------3p2-0-----|
B|--3----3--3-----10--|--------------------|----------------3p2-|
G|--2----2--2-----7---|-----------7--------|--------------------|
D|----------------7---|--------------------|------7*------------|
A|----------------7---|--------------------|----7*--------------|
D|--2-----------------|--------------------|--7*----------------|

e|------------2h3p2---|----0---------------|
B|----0-0h2h3---------|--3-----------------|
G|--2-----------------|--------------------|
D|--------------------|--------------------|
A|--------------------|--------------------|
D|--------------------|--------------------|

Main Part

e|--0h2----5----------|--------------------|--2--2--0-----------|
B|---3-----2----------|-------3------2-----|--3--------3--------|
G|---------2----------|-------4------0-----|--4--------5--------|
D|--------------------|----0--0---0--2-----|-----------5--------|
A|--------------------|--------------1--1--|--2--------3--3-----|
D|---0-----4----------|--4----5--5---------|--------------------|

e|--------------------|
B|--3-----3--2--------|
G|--2-----1--2---2----|
D|--0-----0--2--------|
A|-----------0--0-----|
D|--3--3--2-----------|

e|--0h2---5-----------|--0-----0----0h2----|
B|---3----2-------3---|--3-----3-----------|
G|--------2-------0---|--0-----0----0h2----|
D|-------------0--4---|--------------------|
A|----------------2-2-|--1--1--1-----------|
D|---0----4--4--------|--------------------|

e|--3--2--3s5--0h2h3--|--0-----------------|
B|--------------------|------------2s3--2--|
G|--4--2--4s6--2------|--1------1--3s4--2--|
D|--------------------|-------0----4s5--2--|
A|--------------------|------------0----0--|
D|--------------------|-----2--------------|

e|--0h2----5----------|--------------------|--2--2--0-----------|
B|---3-----2----------|-------3------2-----|--3--------3--------|
G|---------2----------|-------4------0-----|--4--------5--------|
D|--------------------|----0--0---0--2-----|-----------5--------|
A|--------------------|--------------1--1--|--2--------3--3-----|
D|---0-----4----------|--4----5--5---------|--------------------|

e|--------------------|
B|--3-----3--2--------|
G|--2-----1--2---2----|
D|--0-----0--2--------|
A|-----------0--0-----|
D|--3--3--2-----------|

Bridge/Ending

e|--0h2--3------5-----|--7-------7----5h7--|--7--5--------------|
B|---3---3------2-----|--7------7-7---7----|--7--7--7s8--5s6--5-|
G|-------0------2-----|--5-----5---5-------|--------7----5----5-|
D|-----------0------0-|-------5------------|--------------------|
A|--------------------|------5-------------|--------------------|
D|---0---2--2---4--4--|--5------------5----|--5--5--5----3----3-|

e|----------5h7-7--5--|----------------3---|
B|----------7---7--7--|--7s8--5s6--5----5--|
G|--0h2--2------------|--7----5----5-----5-|
D|--0----0------------|--------------------|
A|--------------------|--------------------|
D|----------5---5--5--|--5----3----3-3-----|


e|--------------------|
B|--------------------|
G|--0h2-2h4-2v--------|
D|--0---0---0---------|
A|--------------------|
D|--------------------|

Ending (Harmonics)

Definatly One Of The Hardest Parts Of The Song... Pick The Strings Close To The Bridge
Get A Better Sound... Strum The Last Chord...

e|--------------------|----------12*-------|------12*-----------|
B|--------------------|--------------7*----|--7*----------------|
G|--------------------|-------7*--------5*-|----------7*--------|
D|------------12*-----|-----7*-------------|--------------------|     x3
A|--12*----12*----7*--|--------------------|--------------------|
D|-----12*------------|--5*----------------|--------------------|

e|--------------------|---------2h3p2------|--------------------|
B|------------------7-|----------------3---|-------3----3-------|
G|--------------12*---|--------------------|--4p2-------2-------|
D|-----------12*------|--7*----------------|------------2h4-----|
A|--12*---12*---------|--------------------|------------0-------|
D|-----12*------------|-----7*-------------|--------------------|

Legend
*: Pinch Harmonics
s: Slide
h: Hammer On
p: Pull Off

Cheers, Hope You Like It... Please Rate...
Tap to rate this tab
 
# A B C D E F G H I J K L M N O P Q R S T U V W X Y Z