Song name
# A B C D E F G H I J K L M N O P Q R S T U V W X Y Z

Tommy Mcclennan - Crosscut Saw tab

                                         Crosscut Saw                                             


                                                                                  Tommy Mc Clnnan


                  G                 G7                   C    
E|------------|--------3-----------1-----1-----------|--------0--0-----0--3-----3--3-----3--|
B|------------|--------3--------0-----------------1--|--1-----1--------1--------------------|
G|------------|--------------------------------------|--------------------------------------|
D|------------|-----------0-----------------0--------|-----------2--------------------------|
A|------------|--------------------------------------|--3-----------------3-----------------|
E|--0----2----|--3-----------------3-----------------|-----------------------------3--------|


  G                                      G7   
--1--3--1--3--1--3--1-----------------|-----------1--------1--3--1-----------|
-----------------------3--1--3--1-----|--------0--------3-----------3--1-----|
-----------------------------------3--|--0--------------------------------3--|
--------------------------------------|-----------0--------------------------|
--------------------------------------|-----------2--------------------------|
--------------------------------------|-----------3--------------------------|


  G7                                     D  
-----------3-----3--------3-----------|--------------------------------3-----|
--------------------------0-----------|--------3--------3--------3--3--------|
--------0--------------------------0--|--------------------------------------|
-----------0-----------------0--------|-----------0--------0--------0--------|
--------------------------------------|--------------------------------------|
--3-----------------3-----------------|--2--------------------------------2--|


  C                                  G7   
--3-----3--3-----3--3-1-----------|-----------1--------1-----------------|
------------------------3-1-------|-----------------3--------3--1--------|
----------------------------3-----|--------0-----------------------3--0--|
-------------------------------3--|-----------0--------------------------|
--3--------3----------------------|--------------------------------------|
----------------------------------|--3-----------------3-----------------|

                                            
  G                              G   
--------3--------3------------|-----------------------3-----3--|--------------------------|
--------0--------0------------|-----------------------0-----0--|-----------------------3--|
--------0--------0------------|-----------------------0-----0--|--------------------------|
--------0--0-------------0----|--------0--------------0-----0--|--------------------------|
------------------------------|--------------------------------|--------------------------|
--3-----------------3---------|--3----------3------3-----------|--3----3----3----3--------|


                                                            G7    
--3--3--3--3--3--3--3--1---------------|-----------3--------1-------1--------|
--L-----------------------3--1---------|-----------------0--0-------0--------|
--------------------------------3p--0--|--------0----------------------------|
---------------------------------------|-----------0--------0-------0--------|
---------------------------------------|--------------------2-------2--------|
---------------------------------------|--3-----------------3-------3--------|


  C       
--------0--------0---------------------|----------------------------------------|
--------1--------1--1-----1------------|--------1--------1--------1-------------|
--0--------0-----------3-----3p--0-----|--0--------------------------3br-----0--|
--2--------2------------------------3--|--2--------2----------------------------|
--3--------3---------------------------|--3-----------------3-------------------|
---------------------------------------|----------------------------------------|


                    G7                    G              
--------------------1------------------|--------3--------3--------3-----------|
--------0--1-----3-----3--1------------|--------0--------0--------0-----------|
--------0--------------------3b--0--L--|--------0--------0--------0-----------|
--------0------------------------------|-----------0-----0-----------0--------|
---------------------------------------|--------------------------------------|
--3------------------------------------|--3-----------------3-----------------|


  D7                                     C  
--------------------------------------|-----------0--------------------------|
--------3--------3--------3--3--------|--------1--1-----1--3--1--------------|
-----------------------------5--------|-----------0--------------3--0--------|
-----------4-----------------4--------|-----------2-----------------------3--|
--5-----------------------------------|--3-----------------------------------|
--------------------5-----------------|--------------------------------------|


  G                                       G 
-----------3--------1------------------|--3-----3--------3--3-----3--3--------|
--------0--0--1--3--------3--1---------|--------0--------0--------0--0--------|
-----------0--------------------3p--0--|--------0--------0--------0--0--------|
-----------0---------------------------|-----------------0-----------0--------|
-----------2---------------------------|-----------------------------2--------|
--3--------3---------------------------|--3--------3--------3--------3--------|




Tap to rate this tab
# A B C D E F G H I J K L M N O P Q R S T U V W X Y Z