Guitaretab - guitar tabs
Song name
# A B C D E F G H I J K L M N O P Q R S T U V W X Y Z

Tommy Reilly - Jackets tab

Tommy Reilly - Jackets
My First Tab.


Intro/Verse
you Learn the strumming Pattern Yourself Its Not To Hard.
Repeat x4
    e--x---x---x---x---x---x---x--|
    b--x---x---x---x---x---x---x--|
    g--2---7---2---7---10--10--7--|
x2  d--2---7---2---7---10--10--7--|
    a--x---x---x---x---x---x---x--|
    E--1---6---1---6---8---10--6--|
[ Tab from: http://www.guitaretab.com/t/tommy-reilly/177587.html ]
On the last Just before the chorus back to..
    e--x--
    b--x--
    g--2--
    d--2--
    a--x--
    e--1--

Chorus..
                C
    e--x----x---0---x---x--|
    b--6----x---1---5---6--|
    g--7----7---0---5---5--|
x4  d--7----8---2---4---4--|
    a--5----8---3---3---3--|
    e--x----6---x---x---x--|


Let Me Know If Theres Any Mistakes.
Enjoy x
Related for Jackets tab