Song name
# A B C D E F G H I J K L M N O P Q R S T U V W X Y Z

Tommy Walker - This Is Your Song tab

this is your song(tab)
by;tommy walker
tabbed by;jack castanares patentes
jack_guitarfreak@yahoo.com
(05-23-09,pajo lapu-lapu city phils.)

legend;
p=pull-off
h=hammer-on

i'm pretty sure this is 100% correct,


tempo;185
beat;country train
key of;A

this is the intro:

e|-------------------------|-------------------------------|
b|------------------------2|-------------------------------|
g|-2-----2----2-----2-4-5--|-2-----2----0h2p0---0----------|
d|---4p2--4p2---4p2--------|---4p2---4p2------4---4p2p0----|
a|-------------------------|----------------------------0--|
e|-------------------------|-------------------------------|

e|-------------------------------------------------------5-|
b|------------------------2---2-------2-----3-----4-----5--|
g|-2-----2----2-----2-4-5---5---5-4-5---5-6---6-7---7-8----|
d|---4p2--4p2---4p2----------------------------------------|
a|---------------------------------------------------------|
e|---------------------------------------------------------|

and the ending;
e----------------|----------------|-------------------x-|
b----------------|----------------|-------------------2-|
g-0h2p0--0-------|----------------|-------------------2-|
d------4--4p2p0--|-0h2p0--0-------|----------------0--2-|
a---------------4|------4---4p2p0-|-0h2p0--0----------0-|
e----------------|---------------3|------3---3p2p0----x-|

i suggest to listen to the original audio then play along together.
hope i can help other christian guitarist who really want to play this song.
i only tabbed the intro and the ending part coz i think this is the most 
difficult part of this song..
i dedicate this tab to all christian musician out there..
this is my birthday offering to all of you...

any questions or comments just send me a message..
Tap to rate this tab
 
# A B C D E F G H I J K L M N O P Q R S T U V W X Y Z