Guitaretab - guitar tabs
Song name
# A B C D E F G H I J K L M N O P Q R S T U V W X Y Z

Tone Loc - Wild Thing tab

tabbed by derek tibbs

i'm tabbing two ways to play it. the *'s are pinch harmonics, the x's are clicks.

Eb------------------------------------|
Bb------------------------------------|
Gb-----------4*-----------------------|
Db-------------5*---------------------|
Ab--2-X-2-2--------2-X-2-2--2-1-0-----|
Eb--0-X-0-0--------0-X-0-0--------3---|
[ Tab from: http://www.guitaretab.com/t/tone-loc/184191.html ]
after every drum fill, hit the open E5

here's the second way

Eb--------------------------------------|
Bb--------------------------------------|
Gb-----------11*------------------------|
Db--9-X-9-9-----12*--9-X-9-9--9-8-7-----|
Ab--7-X-7-7----------7-X-7-7--------10--|
Eb--------------------------------------|

hit the E5 on the a and d strings after every drum fill.
Related for Wild Thing tab