Song name
# A B C D E F G H I J K L M N O P Q R S T U V W X Y Z

Toni Braxton - Let It Flow tab

This is the EASY way to play this song.  Catchy, smooth and simple


e|------------------------------------------------------------------------1-----0----------|
B|-----------------------------------------------------------------------------------------|
G|---4--5--4--5----------4--5--4--2----------0--2--4--2----------0--2--0-------------------| 
D|-----------------------------------------------------------------------------------------|
A|-----------------------------------------------------------------------------------------|
E|-----------------------------------------------------------------------------------------|

        OR

e|------------------------------------------------------------------------1-----0----------|
B|--------------------------------6-----5--------------------------------------------------|
G|---4--5--4--5----------4--5--4-------------0--2--4--2----------0--2--0-------------------| 
D|-----------------------------------------------------------------------------------------|
A|-----------------------------------------------------------------------------------------|
E|-----------------------------------------------------------------------------------------|
Tap to rate this tab
# A B C D E F G H I J K L M N O P Q R S T U V W X Y Z