Song name
# A B C D E F G H I J K L M N O P Q R S T U V W X Y Z

Tony Oller - My Heart tab

Official websites:
http://www.tonyoller.com/
http://www.myspace.com/tonyollermusic

My heart - Tony Oller

Original: http://www.youtube.com/watch?v=I4sWkahtzMw

Okay this is definitely not as beautiful as when Tony Oller plays on piano
but guitar is very versatile so i figured out some chords which you could
cover this amazing song with :)

Not so sure of what all these chords are called so I'm putting them in tab form :)

Standard tuning capo on 4th fret.
Or you can move around the capo to suit your vocal range.

Verse 1: (strumming for each chord is d duu d duu )

"Now take my hand..."

e:--3--3--3--3~|		
B:--3--3--3--3~|
G:--0--0--0--0~|
D:--2--0--2--2~|
A:--2--2--3--3~|
E:--0--3--0--0~|

"Take my heart..."

e:--3--3--3--3~|		
B:--3--3--3--3~|
G:--0--2--0--0~|
D:--2--0--2--2~|
A:--2--2--3--3~|
E:--0-----0--0~|

"You are the one..."

e:--3--3--3--3~|		
B:--3--3--3--3~|
G:--0--0--0--0~|
D:--2--0--2--2~|
A:--2--2--3--3~|
E:--0--3--0--0~|

"So take my heart..."

e:--3--3--3--3~|		
B:--3--3--3--3~|
G:--0--2--0--0~|
D:--2--0--2--2~|
A:--2--2--3--3~|
E:--0-----0--0~|

Chorus: (strumming every 2 chords is d duu / uddu)

"Take my heart, take my soul..."

e:--0--0--0--0-|		
B:--0--1--0--3-|
G:--0--0--0--2-|  x2
D:--2--2--0--0-|
A:--2--3--2--0-|
E:--0--3--3--0-|

"You are the one, my love..."

e:--0--0--0--0-|		
B:--1--0--0--3-|
G:--0--0--0--2-|  
D:--2--0--2--0-|
A:--3--2--2--0-|
E:--3--3--0--0-|

"So take my heart..."

e:--0--0--0~|		
B:--1--0--3~|
G:--0--0--2~|  
D:--2--0--0~|
A:--3--2--0~|
E:--3--3--0~|

Sorry, so far i haven't figured out the bridge, only chorus and verses :(

Lyrics: (from 6lyrics.com)

Now take my hand.
And let me show you the way.
Take my heart, I'm ready this day.
You are the one, that many dream to find.
Now take my heart, I'm ready this time.

Now take my heart take my soul.
Let love be in control.
So take my heart take my soul.
Let love be in control.
You are the one, my love.
I can't control it anymore.
So take my heart, now take my soul.

Now I can't buy you expensive stuff.
But you can bet I'll show you love.
Show you how much I care.
If love is here then I'm right there.
Yes I am.

Now take my heart take my soul.
Let love be in control.
So take my heart take my soul.
Let love be in control.
You are the one, my love.
I can't control it anymore.
So take my heart, now take my soul.

Now sure I had it on.
Now don't be scared.
Now sure I had it,
Because you know that I'll be there.

So take my heart, now take my soul.
Now take my heart, now take my soul.
Now take my heart take my soul.
Let love be in control.
So take my heart take my soul, yeah.
So take my heart.

Tap to rate this tab
 
# A B C D E F G H I J K L M N O P Q R S T U V W X Y Z