Guitaretab - guitar tabs
Song name
# A B C D E F G H I J K L M N O P Q R S T U V W X Y Z
Home / T / Tool / Hush tab

Tool - Hush tab

Song: Hush
Band: Tool
Album: Opiate
Tabbed by: james silver

I noticed there was no completely correct tab for Hush, so
I decided to step in. Enjoy!

 Intro
    <<<
|-12--------|
|-10--------|
|-----------|
|-----------|
|-----------|
|-----------|


 Guitar 1
|---------------9--x---|-7----------------------|
|---------------9--x-7-|-7----------------------|
|-7-------------9--x-7-|-7-----------------(0)--|
|-7--------------------|------------------------|
|-5--------------------|------------------------|
|----------------------|------------------------|
|
|Guitar 2
|---------------9--x---|-7----------------------|
|---------------9--x-7-|-7----------------------|
|-7-------------9--x-7-|-7----------------------|
|-7--------------------|------------------------|
|-5--------------------|------------------------|
|----------------------|------------------------|


|---------------9--x---|-7---------(7)br========||
|---------------9--x-7-|-7---------(7)br========||
|-7-------------9--x-7-|-7---------(7)br===(0)--||
|-7--------------------|------------------------||
|-5--------------------|------------------------||
|----------------------|------------------------||
|
|---------------9--x---|-7----------------------||
|---------------9--x-7-|-7----------------------||
|-7-------------9--x-7-|-7----------------------||
|-7--------------------|------------------------||
|-5--------------------|------------------------||
|----------------------|------------------------||


    $
    Guitars 1 & 2                         3x
||---------------------|--------------------||
||o--------------------|-------------------o|| Fig 1
||---------------------|---------------7\---||
||--7-9-----9--x-x-x-x-|-2-3-2-0-----0-7\---||
||o-7-9-9-9-9--x-x-x-x-|-2-3-2-0-----0-5\--o||
||--7-9-9-9-9--x-x-x-x-|-2-3-2-0-----0------||
  Pm    . .                          .


                            To Coda
|--------------------|---------------||
|--------------------|---------------||
|--------------------|---------------||
|-7-9-----9--x-x-x-x-|-3----2----0---||
|-7-9-9-9-9--x-x-x-x-|-3----2----0---||
|-7-9-9-9-9--x-x-x-x-|-3----2----0---||
Pm    . .


  Verse
||-----------|-------------------|----------|--------------------||
||o----------|-------------------|----------|-------------------o||
||--4--------|---------------7\--|-4--------|---------------7\---||
||--4--------|---------------7\--|-4--------|---------------7\---||
||o-2--------|-2-3-2-0-----0-5\--|-2--------|-2-3-2-0-----0-5\--o||
||-----------|-2-3-2-0-----0-----|----------|-2-3-2-0-----0------||
  Pm.          . . . .     .       .          . . . .     .


  Pre-Chorus                            3x
||-------------------|--------------------||
||o------------------|-------------------o||
||-------------------|---------------7\---||
||--7-9-----9--x-x-x-|-2-3-2-0-----0-7\---||
||o-7-9-9-9-9--x-x-x-|-2-3-2-0-----0-5\--o||
||--7-9-9-9-9--x-x-x-|-2-3-2-0-----0------||


 Guitars 1 & 2
|--------------------|--------------------||
|--------------------|--------------------||
|--------------------|--------------------||
|-7-9-----9--x-x-x-x-|-3----2--------0----||
|-7-9-9-9-9--x-x-x-x-|-3----2--------0----||
|-7-9-9-9-9--x-x-x-x-|-3----2--------0----||
|
|Guitar 3
|--------------------|--------------------||
|--------------------|--------------------||
|--------------------|--------------------||
|--------------------|------0--(0)/-------||
|--------------------|------0--(0)/-------||
|--------------------|------0--(0)/-------||


   Chorus
  Guitars 1,2,3                             3x
||---------------------|----------------------||
||o-10/12-----12----12-|-(12)\---10------10--o||
||---9/11-----11----11-|-(11)\----9-------9---||
||---7/9--9-9--9--9--9-|--(9)\-7--7--7-7--7---||
||o-7/9--9-9--9--9--9-|--(9)\-7--7--7-7--7--o||
||---7/9--9-9--9--9--9-|--(9)\-7--7--7-7--7---||


                                      D.S. al Coda
|--------------------|-----------------------------|| Go back to &, play
|-10/12-----12----12-|-(12)\---10--10-10-10-10-10--|| till 'To Coda', then
|--9/11-----11----11-|-(11)\----9---9--9--9--9--9--|| go below:
|--7/9--9-9--9--9--9-|--(9)\-7--7---7--7--7--7--7--||
|--7/9--9-9--9--9--9-|--(9)\-7--7---7--7--7--7--7--||
|--7/9--9-9--9--9--9-|--(9)\-7--7---7--7--7--7--7--||

Go back to the &, play till 'To Coda', then go here:

  Verse
    Guitars 1,2,3               3x
||-----------|--------------------||----------|--------------------||
||o----------|-------------------o||----------|--------------------||
||--4--------|---------------7\---||-4--------|--------------------||
||--4--------|---------------7\---||-4--------|--------------------||
||o-2--------|-2-3-2-0-----0-5\--o||-2--------|--------------------||
||-----------|-2-3-2-0-----0------||----------|-2-3-2-0-----0-12\--||
  Pm.          . . . .     . .       .

[ Tab from: http://www.guitaretab.com/t/tool/19555.html ]
 Pre-Chorus
  Guitars 1 & 2
|-----------------|--------------------|-----------------|---------------------|
|-----------------|--------------------|-----------------|---------------------|
|-----------------|--------------------|-----------------|---------------------|
|-----------------|--------------------|-----------------|---------------------|
|-----------------|-2-3-2-0-----0-12\--|-----------------|-2-3-2-0-----0-12\---|
|-9~~~~------(9)\-|-2-3-2-0-----0-12\--|-9~~~~~-----(9)\-|-2-3-2-0-----0-12\---|
|
| Guitar 3
|-----------------|--------------------|-----------------|---------------------|
|-----------------|--------------------|-----------------|---------------------|
|-----------------|--------------------|-----------------|---------------------|
|-----------------|--------------------|-----------------|---------------------|
|-----------------|--------------------|-----------------|---------------12\---|
|-9~~~~------(9)\-|-2-3-2-0-----0-12\--|-9~~~~~-----(9)\-|-2-3-2-0-----0-------|


|-----------------|-------------------|
|-----------------|-------------------|
|-----------------|-------------------|
|-----------------|-------------------|
|-9~~~~------(9)\-|-2-3-2-0-(0)-0-12--|
|-----------------|-------------------|
|
|-----------------|-------------------|
|-----------------|-------------------|
|-----------------|-------------------|
|-----------------|-------------------|
|-9~~~~------(9)\-|-2-3-2-0-(0)-0-12--|
|-----------------|-------------------|





|---------------|-------------------------||
|---------------|-------------------------||
|---------------|-------------------------||
|---------------|--------------------9\7--||
|-14~~~~--------|-12-14-12-----------9\7--||
|---------------|----------14----14-9\7--||
|
|---------------|-------------------------||
|---------------|-------------------------||
|---------------|-------------------------||
|---------------|-------------------------||
|-14~~~~--------|-12-14-12----------------||
|---------------|----------14----14-12\9--||


  Chorus
    Guitars 1,2,3                           3x
||---------------------|----------------------||
||o-10/12-----12----12-|-(12)\---10------10--o||
||---9/11-----11----11-|-(11)\----9-------9---||
||---7/9--9-9--9--9--9-|--(9)\-7--7--7-7--7---||
||o-7/9--9-9--9--9--9-|--(9)\-7--7--7-7--7--o||
||---7/9--9-9--9--9--9-|--(9)\-7--7--7-7--7---||

|--------------------|-----------------------------||
|-10/12-----12----12-|-(12)\---10--10-10-10-10-10--||
|--9/11-----11----11-|-(11)\----9---9--9--9--9--9--||
|--7/9--9-9--9--9--9-|--(9)\-7--7---7--7--7--7--7--||
|--7/9--9-9--9--9--9-|--(9)\-7--7---7--7--7--7--7--||
|--7/9--9-9--9--9--9-|--(9)\-7--7---7--7--7--7--7--||

 Interlude
|------------------|
|------------------| 4x
|------------------|
|-9--9-7\----------|
|-9--9-7\----0-2-0-|
|-9--9-7\----0-2-0-|
Pm           . . .

  Breakdown                            3x
||------------------|--------------------||
||o-----------------|-------------------o||
||------------------|---------5-5-5------||
||--3-2-2-3-2-2-3-2-|-2-3-2-2-5-5-5------||
||o-3-2-2-3-2-2-3-2-|-2-3-2-2-3-3-3-(0)-o||
||--3-2-2-3-2-2-3-2-|-2-3-2-2-------(0)--||

|-----------------|---------------------||
|-----------------|---------------------||
|-----------------|---------------------||
|-3-2-2-3-2-2-3-2-|-2-3-2-3/-10-10-10-7-||
|-3-2-2-3-2-2-3-2-|-2-3-2-3/-10-10-10-7-||
|-3-2-2-3-2-2-3-2-|-2-3-2-3/-10-10-10-7-||



 Guitar Solo (Play Fig 1 under this)
 Guitar 4
|---------------------|---------------------|
|---------------------|-------7-----7\------|
|---------7\----------|-7---x-7-----7\------|
|-7/9-9-9-9\----------|-7---x-7-----7\------|
|-x-x-x-x-x-----------|---------------------|
|-7/9-9-9-9\----------|---------------------|

|-------------x-x-x-x-|-9-9-9-x-9---7--7--7\--------|
|-------------x-x-x-x-|-9-9-9-x-9---7--7--7\--------|
|---------7\--x-x-x-x-|-9-9-9-x-9---7--7--7\--------|
|-7/9-9-9-9\----------|-----------------------------|
|-x-x-x-x-x-----------|-----------------------------|
|-7/9-9-9-9\----------|-----------------------------|

|---------------------|---------------------------------|
|---------------------|-7-7-x-7-------------------------|
|---------7\----------|-7-7-x-7-9p7---------------------|
|-7/9-9-9-9\----------|-------------9p7-----------------|
|-x-x-x-x-x-----------|------------------7h9-5h7p5--0h2-|
|-7/9-9-9-9\----------|---------------------------------|

|--------------------|-10-10-10-10-10----9--9-9-9-9---||
|--------------------|-10-10-10-10-10----9--9-9-9-9---||
|---------7--7-7-7---|--7--7--7--7--7----6--6-6-6-6---||
|-7/9-9-9-9----------|--------------------------------||
|-x-x-x-x-x----------|--------------------------------||
|-7/9-9-9-9----------|--------------------------------||


 Verse
  Guitars 1,2,3
|--------------------|-------------------|
|--------------------|-------------------| 3x
|--------------------|---------------7\--|
|-7-9-----9----------|-2-3-2-0-(0)-0-7\--|
|-7-9-9-9-9--x-x-x-x-|-2-3-2-0-(0)-0-5\--|
|-7-9-9-9-9--x-x-x-x-|-2-3-2-0-(0)-0-----|

|--------------------|----------------||
|--------------------|----------------||
|--------------------|----------------||
|-7-9-----9--9-9-9-9-|-3----2----0----||
|-7-9-x-9-9--9-9-9-9-|-3----2----0----||
|-7-9-x-9-9--9-9-9-9-|-3----2----0----||


 Outro
|------------------------|
|------------------------| 6x
|------------------------|
|------------------------|
|------------------------|
|-9-9-9-9-9-9-9-9-9------|
Pm. . . . . . . . .
Related for Hush tab