Song name
# A B C D E F G H I J K L M N O P Q R S T U V W X Y Z

Tool - Pot tab

...= palm mute
/= slide up
\= slide down
b= bend
h= hammer on
p= pull off

the opening is just bass

guitar comes in when maynard says "ya musta been.. high....."
|------------------------------------|
|------------------------------------|
|------------------------------------|  x2
|----0-------0----------0------------|
|-----------------------------------3|
|0-0---0-0-0----0-0-0-0----0-0--3h5--|
 . .   . . .    . . . .    . .  


|-------------|
|-------------|
|-------------|  x4
|---10b-(12)--|
|-------------|
|10-----------|


Verse (starts off with bass)

Then
"Kangaroo done hung the guilty with the innocent"
|------------------------------------|
|------------------------------------|
|------------------------------------|  x2
|----0-------0----------0------------|
|-----------------------------------3|
|0-0---0-0-0----0-0-0-0----0-0--3h5--|
 . .   . . .    . . . .    . .


Chorus
"Weep or change the chosen into gold.."
|------------------------------------------------------------------|
|------------------------------------------------------------------|
|------------------------------------------------------------------|
|------------------------------------------------------------------|
|----5------3-----------10-----------------------------------------|
|5-5----3-3----10-10-10----10-10-10---5-5-5h7-0--------------------|


"Eye, eye, when you.."
|------------------------------------|
|------------------------------------|
|------------------------------------|  
|----0-------0----------0------------|
|-----------------------------------3|
|0-0---0-0-0----0-0-0-0----0-0--3h5--|
 . .   . . .    . . . .    . .

"Pissed all over my black kettle, ya musta been.."
|------------------------------------------------------------------|
|------------------------------------------------------------------|
|------------------------------------------------------------------|
|------------------------------------------------------------------|
|----5------3-----------10----------------1------------------------|
|5-5----3-3----10-10-10----10-10-10---1-1---1-1-1------------------|

"High, high"
|------------------------------------|
|------------------------------------|
|------------------------------------|  
|----0-------0----------0------------|
|-----------------------------------3|
|0-0---0-0-0----0-0-0-0----0-0--3h5--|
 . .   . . .    . . . .    . .

|-------------|
|-------------|
|-------------|  x2
|---10b-(12)--|
|-------------|
|10-----------|


"Who are you to wave your finger, so full of it...."
|------------------------------------|
|------------------------------------|
|------------------------------------|   x4
|----0-------0----------0------------|
|-----------------------------------3|
|0-0---0-0-0----0-0-0-0----0-0--3h5--|
 . .   . . .    . . . .    . .

"Liar, lawyer, mirror show me, what's the difference?"
|---------------------------------------------|
|---------------------------------------------|
|------------------------------(pick scrapes)-|
|10b-------------0----------------------------|
|10b(let ring)---0--(let ring)----------------|
|10b-------------0----------------------------|

"Kangaroo done hung the guilty with the innocent"
  
|----------------|
|----------------|
|----------------|
|10b-------------|
|10b(let ring)---|
|10b-------------|


|------------------------------------|
|------------------------------------|
|------------------------------------|   x4
|----0-------0----------0------------|
|-----------------------------------3|
|0-0---0-0-0----0-0-0-0----0-0--3h5--|
 . .   . . .    . . . .    . .


"Now you'll weep or change the chosen into gold..."
|------------------------------------------------------------------|
|------------------------------------------------------------------|
|------------------------------------------------------------------|
|------------------------------------------------------------------|
|----5------3-----------10-----------------------------------------|
|5-5----3-3----10-10-10----10-10-10---5-5-5h7-0--------------------|


"Eye, eye, when you.."
|------------------------------------|
|------------------------------------|
|------------------------------------|  
|----0-------0----------0------------|
|-----------------------------------3|
|0-0---0-0-0----0-0-0-0----0-0--3h5--|
 . .   . . .    . . . .    . .

"Pissed all over my black kettle, ya musta been.."
|------------------------------------------------------------------|
|------------------------------------------------------------------|
|------------------------------------------------------------------|
|------------------------------------------------------------------|
|----5------3-----------10----------------1------------------------|
|5-5----3-3----10-10-10----10-10-10---1-1---1-1-1------------------|


Bridge
|-------------------------------------------|
|-------------------------------------------|
|-------------------------------------------|\
|0-0-----------------2-2--------------------| \
|0-0--------7--------2-2--------7-----------|  \
|0-0-00-5h7---h7-5p0-2-2-00-5h7---h7-5p0----|   \
     ..                  ..                      --- all that played twice
|-------------------------------------------|   /
|-------------------------------------------|  /
|-------------------------------------------| /
|3-3-----------------5-5--------------------|/
|3-3--------7--------5-5--------7-----------|
|3-3-00-5h7---h7-5p0-5-5-00-5h7---h7-5p0----|
     ..                  ..


"So who are you to wave your finger..."
|------------------------------------------------------------------|
|------------------------------------------------------------------|
|------------------------------------------------------------------|
|0-0----0-0----2-2----2-2----3-3----3-3----5-5---------------------|
|0-0----0-0----2-2----2-2----3-3----3-3----5-5--------7------------|
|0-0-00-0-0-00-2-2-00-2-2-00-3-3-00-3-3-00-5-5-00-5h7---h7-5p0-----|
     ..     ..     ..     ..     ..     ..     ..

"Who are you to wave your mighty fingers at me...."
|------------------------------------------------------------------|
|------------------------------------------------------------------|
|------------------------------------------------------------------|
|0-0----0-0----2-2----2-2----3-3----3-3----5-5----8-8----3-3-------|
|0-0----0-0----2-2----2-2----3-3----3-3----5-5----8-8----3-3-------|
|0-0-00-0-0-00-2-2-00-2-2-00-3-3-00-3-3-00-5-5-00-8-8-00-3-3-------|
     ..     ..     ..     ..     ..     ..     ..     .. 

|------------------------------------|
|------------------------------------|
|--------------2----------------2----|   x10
|------------------------------------|
|-------0h3h5----5---------3h5----5--|
|0-0-0--------------0-0-0------------|
 . . .  . . .  . .  . . .  . .  . .

"Reefer chased of indigo..."
|------------------------------------|
|------------------------------------|
|--------------2---------------------|  x4
|----------------0----3--------------|
|-------0h3h5-------1----------7p5---|
|0-0-0------------------0---5--------|

|---------------------------------|
|---------------------------------|
|---------------------------------| x5
|---------------------------------|
|--3--5--3---------3--6-3--6-333--|
|0--00-00-00-0--0-0-00-0-00-0-----|
 ...............................

|------------------|---------------------------------------------------|
|------------------|---------------------------------------------------|
|------------------|---------------------------------------------(x2)--|
|------------------|---------------------------------------------------|
|------------------|---------------3h5---------------3h5(let ring)-----|
|0-00-00-00-00-000-|00-00-00-0-3h5-----0-00-00-00-0--------------------|
 . .. .. .. .. ...  .. .. .. .         . .. .. .. . 

|------------------------------------------------------|
|------------------------------------------------------|
|------------------------------------------------------|
|----------------3h5--------------0--------------------|
|----3h5-----3h5-----3h5-----3h5--0--(let ring)--------|
|3h5-----3h5-------------3h5------0--------------------|

"Liar, lawyer, mirror for ya, what's the difference"
|-----------------------------------|
|-----------------------------------|
|-----------------------------------|
|--0--------------------------------|
|--0---(still ringing from before)--|
|--0--------------------------------|

|------------------------------------|
|------------------------------------|
|------------------------------------|  
|----0-------0----------0------------|
|-----------------------------------3|
|0-0---0-0-0----0-0-0-0----0-0--3h5--|
 . .   . . .    . . . .    . .

"Kangaroo done hung the guilty with the innocent"
|-----------------------------------|
|-----------------------------------|
|-----------------------------------|
|----10b----------------------------|
|----10b-(let ring)-----------------|
|----10b----------------------------|

             "Now!!"
|------------------------------------|
|------------------------------------|
|------------------------------------|  
|----0-------0----------0------------|
|-----------------------------------3|
|0-0---0-0-0----0-0-0-0----0-0--3h5--|
 . .   . . .    . . . .    . .

"You'll weep or change the chosen into gold..."
|------------------------------------------------------------------|
|------------------------------------------------------------------|
|------------------------------------------------------------------|
|------------------------------------------------------------------|
|----5------3-----------10-----------------------------------------|
|5-5----3-3----10-10-10----10-10-10---5-5-5h7-0--------------------|


"Eye, eye, when you.."
|------------------------------------|
|------------------------------------|
|------------------------------------|  
|----0-------0----------0------------|
|-----------------------------------3|
|0-0---0-0-0----0-0-0-0----0-0--3h5--|
 . .   . . .    . . . .    . .

"Pissed all over my black kettle, ya musta been.."
|------------------------------------------------------------------|
|------------------------------------------------------------------|
|------------------------------------------------------------------|
|------------------------------------------------------------------|
|----5------3-----------10----------------1------------------------|
|5-5----3-3----10-10-10----10-10-10---1-1---1-1-1------------------|


"High, high......"
|-------------------------------------------|
|-------------------------------------------|
|-------------------------------------------|\
|0-0-----------------2-2--------------------| \
|0-0--------7--------2-2--------7-----------|  \
|0-0-00-5h7---h7-5p0-2-2-00-5h7---h7-5p0----|   \
     ..                  ..                      --- all that played twice
|-------------------------------------------|   /             
|-------------------------------------------|  /
|-------------------------------------------| /
|3-3-----------------5-5--------------------|/
|3-3--------7--------5-5--------7-----------|
|3-3-00-5h7---h7-5p0-5-5-00-5h7---h7-5p0----|
     ..                  ..

"Your balls deep in muddy waters..."
|-------------------------------------------|
|-------------------------------------------|
|-------------------------------------------|
|0-0-----------------2-2--------------------|
|0-0--------7--------2-2--------7-----------|
|0-0-00-5h7---h7-5p0-2-2-00-5h7---h7-5p0----|
     ..                  .. 

"Ganja police, you must have been out your.."
|-------------------------------------------|
|-------------------------------------------|
|-------------------------------------------|
|3-3-----------------5-5----8-8----3-3------|
|3-3--------7--------5-5----8-8----3-3------|
|3-3-00-5h7---h7-5p0-5-5-00-8-8-00-3-3-00---|
     ..                  ..     ..     ..

"..MIND!!!"
|-------------------------------------------|
|-------------------------------------------|
|-------------------------------------------| x2
|-------------------------------------------|
|5------3------5--------3-5---------6-------|
|--0000---0000---0000-3------00-3-8---------|
   ....   ....   ....        ..

|-------------------------------------------|
|-------------------------------------------|
|-------------------------------------------|  x1
|-------------------------------------------|
|5------3------5--------3-5---------6-------|
|--0-0----0-0----0-0--3------00-3-8---------|
   . .    . .    . .        ..

|-------------------------------------------|
|-------------------------------------------|
|-------------------------------------------|  x1
|-------------------------------------------|
|5------3------5--------3-5---------6-------|
|--0000---0000---0000-3------00-3-8---------|
   ....   ....   ....        ..

And there you have it.
It's a pretty easy song to play, once you get the hang of it.
This is my first tab, but I know it's right.
Enjoy!
Tap to rate this tab
# A B C D E F G H I J K L M N O P Q R S T U V W X Y Z