Song name
# A B C D E F G H I J K L M N O P Q R S T U V W X Y Z

Tool - Lateralus - The Patient tab

Artist: TooL
Subject: The Patient
Tabbed by : Andy Schuetze
May 29th 2001
Special thanx to Andrew .L for getting me started on one of 
the best songs on TooLs new CD Lateralus.

Main Riff
Palm Muted
E|----------------------------------| 
B|----------------------------------| 
G|----------------------------------|   
D|----0-2-----0-2----2----2---------| 
A|-----------------3----0-----------| X4
D|--3------0------------------------|
With the main riff played under this,
sounds kinda like a wah
Fill
E|----------------------------------| 
B|----------------------------------| 
G|------------------------5-2-------| 
D|--2-3---0--5--2--2-3--0-----------| 
A|----------------------------------| X8
D|----------------------------------| 
after the fill riff it ends on this
Palm muted
E|---------------| 
B|---------------| 
G|---------------|   
D|----0-2--------| 
A|----------3----| X8 
D|--0-----0------| 
ends the last riff
E|-------------| 
B|-------------| 
G|-------------|   
D|--2-----0--2-| 
A|----0-3------| 
D|-------------|

Main riff X8 and ends with
Palm muted
E|-------------| 
B|-------------| 
G|-------------|   
D|--2-----0--2-| 
A|----0-3------| 
D|-------------|
theres a pause
E|-------------| 
B|-------------| 
G|-------------|   
D|--2-----0----| 
A|----0-3------| X16
D|-------------|
its ends on 
Clean
E|--------------| 
B|--------------| 
G|--------------|   
D|--2--2----0---| 
A|---0--0--3----|
D|--------------|
Feed Back 
Distortion!!
E|----------------------------| 
B|----------------------------| 
G|----------------------------|   
D|-3--3-0--0--5-5--7777-0-XX--| 
A|-3--3-0--0--5-5--7777-0-XX--| 
D|-3--3-0--0--5-5--7777-0-XX--|
In not 100% sure but i think the riff played 
after the power chords are these
E|-------------------------------| 
B|-------------------------------| 
G|---5-3--------5-3---5-3--------|   
D|-0-----0--7-0-----0-----0--7-0-| 
A|-------------------------------| 
D|-------------------------------|
after that its some harmonic riff with distortion
then
E|----------------------| 
B|----------------------| 
G|----------------------|   
D|-0-5\7-7-10-8-7-5--7--| 
A|-0-5\7-7-10-8-7-5--7--| X8 
D|-0-5\7-7-10-8-7-5--7--|
then
E|------------| 
B|------------| 
G|------------|   
D|------0--2--| 
A|-7--0-------| X16 
D|------------|
palm muted
E|--------------------| 
B|--------------------| 
G|--------------------|   
D|------0--2----------| 
A|-7--0-------7-0-3-5-| X4 
D|--------------------|

E|--------------------------| 
B|--------------------------| 
G|--------------------------|   
D|-0-7-5-0-5-7-0-5-7-0-5-7--| 
A|-0-7-5-0-5-7-0-5-7-0-5-7--| X2 
D|-0-7-5-0-5-7-0-5-7-0-5-7--|
palm muted xept on the 7th 
E|--------------------| 
B|--------------------| 
G|--------------------|   
D|-0-5-7-10-8-7-5--7--| 
A|-0-5-7-10-8-7-5--7--| X8 
D|-0-5-7-10-8-7-5--7--|
Goes into harmonics again 
then
clean
E|---------------------------| 
B|---------------------------| 
G|-----2----5---2------------|   
D|---2---2----2---2--5--2----| 
A|-0-------------------------| X4 
D|---------------------------|

ends with main riff
Tap to rate this tab
# A B C D E F G H I J K L M N O P Q R S T U V W X Y Z