Guitaretab - guitar tabs
Song name
# A B C D E F G H I J K L M N O P Q R S T U V W X Y Z
Home / G / Tool / Pushit tab

Tool - Pushit tab

Tool
PUSHIT
Aenima
by Jake-HK

This tab is different from the other one and is correct 


-Dadgbe-

v=downstroke
^=upstroke

:17
e|--------------------------|------|
b|--------------------------|------|
g|--------------------------|------|
d|-10p9---7-----5b----7b----|-10-9-|
a|------0-0-0-0-0-0-0-0-0-0-|-10-9-|
D|--------------------------|-10-9-|
                   10 times


|--------------------------|
|--------------------------|
|--------------------------|
|-7-----5b----7b----10p9---|
|-0-0-0-0-0-0-0-0-0------0-|
|--------------------------|
                    4 times


1:02
|----------------------------------------------------------------------------|
|----------------------------------------------------------------------------|
|----------------------------------------------------------------------------|
|-7~-------7-----5b----7b----10p0---7~-------10p9---7-----5b----7-----10p9---|
|-0~-------0-0-0-0-0-0-0-0-0------0-0~------------0-0-0-0-0-0-0-0-0-0------0-|
|----------------------------------------------------------------------------|
                                                                      2 times

|------------------------|-----------------------|
|------------------------|-10---8----10---13/12--|
|-9----7----9----12/11---|-9----7----9----12/11--|
|-7----5----7----10/9----|-7----5----7----10/9---|
|----0----0----0-------0-|----0----0----0------0-|
|------------------------|-----------------------|
                  3 times


|---------------------------|
|---------------------------|
|-9-----7-----9-----12/11---|
|-7-----5-----7-----10/9----|
|-7-0-0-5-0-0-7-0-0-10/9--0-|
|---------------------------|
                     4 times

1:48
|-----------------------------|
|-----------------------------|
|-----------------------------|
|-7b--0--5b--0--7b--0--10-9-0-|
|-7b--0--5b--0--7b--0--10-9-0-|
|-7b--0--5b--0--7b--0--10-9-0-|
                       4 times

|--------------------------|
|--------------------------|
|--------------------------|
|-7-----5b----7b----10p9---|
|-0-0-0-0-0-0-0-0-0------0-|
|--------------------------|
                    4 times

2:11
|------------------------------------------------------------|
|------------------------------------------------------------|
|------------------------------------------------------------|
|-7~---------------(7)--------------(7)----------------(7)---|
|-0~---------------(0)--------------(0)----------------(0)---|
|------------------------------------------------------------|
                   ^volume swells                                                   

|---------------------------|
|---------------------------|
|-9-----7-----9-----12/11---|
|-7-----5-----7-----10/9----|
|-7-0-0-5-0-0-7-0-0-10/9--0-|
|---------------------------|
                     4 times

2:46
|-----------------------------|
|-----------------------------|
|-----------------------------|
|-7b--0--5b--0--7b--0--10-9-0-|
|-7b--0--5b--0--7b--0--10-9-0-|
|-7b--0--5b--0--7b--0--10-9-0-|
                       4 times


|--------------------------|---------------------------------------------------|
|--------------------------|---------------------------------------------------|
|--------------------------|---------------------------------------------------|
|-7-----5b----7b----10p9---|-7-----5-----7---10p9-----7-----12~----14~----12\\-|
|-0-0-0-0-0-0-0-0-0------0-|----0-----0----0-------0-----0------0------0-------|
|--------------------------|---------------------------------------------------|
                    9 times|let ring


3:30
|---------------------------------------------------|
|---------------------------------------------------|
|---------------------------------------------------|
|-7-777-7-777-7-777-7-777--6-666-6-666-6-666-6-666--|
|-7-777-7-777-7-777-7-777--6-666-6-666-6-666-6-666--|
|-7-777-7-777-7-777-7-777--6-666-6-666-6-666-6-666--|

|---------------------------------------------------|
|---------------------------------------------------|
|---------------------------------------------------|
|-3-333-3-333-3-333-3-333--5-555-5-555-5-555-5-555--|
|-3-333-3-333-3-333-3-333--5-555-5-555-5-555-5-555--|
|-3-333-3-333-3-333-3-333--5-555-5-555-5-555-5-555--|

|---------------------------------------------------|
|---------------------------------------------------|
|---------------------------------------------------|
|-7-777-7-777-7-777-7-777--6-666-6-666-6-666-6-666--|
|-7-777-7-777-7-777-7-777--6-666-6-666-6-666-6-666--|
|-7-777-7-777-7-777-7-777--6-666-6-666-6-666-6-666--|

|---------------------------------------------------------|
|---------------------------------------------------------|
|---------------------------------------------------------|
|-3-xxx-3-xxx-3-xxx-3-xxx--5-xxx-5-xxx-5-xxx-5-xxx-10-9-7-|
|-3-xxx-3-xxx-3-xxx-3-xxx--5-xxx-5-xxx-5-xxx-5-xxx-10-9-7-|
|-3-xxx-3-xxx-3-xxx-3-xxx--5-xxx-5-xxx-5-xxx-5-xxx-10-9-7-|

3:52
|---------------|
|---------------|
|---------------|
|--3-00-3-\10---|
|--3-00-3-\10---|
|--3-00-3-\10---|
          8 times 

4:04 
|-----------------------------------|
|-----------------------------------|
|-----------------------------------|
|-----------------------------------|
|-12b-12--12~-12--12b--12--12-12-12-|
|-0---0---0---0---0----0---0--0--0--|
                             4 times

4:16
|----------------------------------------------------|
|----------------------------------------------------|
|----------------------------------------------------|
|-0--------------0---------------0--------------0----|
|-0--------------0---------------0--------------0----|
|-0--------------0---------------0--------------0----|
        ^neck    ^br.    ^neck   ^br.   ^neck   ^br.
   
let ring the whole time, on les paul turn neck pickup volume to 0, toggle from bridge to neck


5:08
|------------------------------------------|
|-----15--17--15--14--12------12----12-----|
|--14---------------------12-----12----14--|
|------------------------------------------|
|------------------------------------------|
|------------------------------------------|

5:26
|-----------------|
|-----15~~--------|
|--14-------------|
|-----------------|
|-----------------|
|-----------------|

5:44
|---------------------------------------------------------------------------------------------|
|-----15~~------------------------------------8---10\8----------------------------------------|
|--14-------15-14--14-12--12-11--11-9--9-7--7----------7\6------------------------------------|
|----------------------------------------------------------7-7~-------7---11---14---17---19\\-|
|-----------------------------------------------------------------------0----0----0----0------|
|---------------------------------------------------------------------------------------------|
[ Tab from: http://www.guitaretab.com/t/tool/22284.html ]
6:02
|--------------------------------------------------------------|
|----15~~------------------------------------------------------|
|-14-------------14----14-----14----14---- -14----14-----14\12-|
|-------------12----12-----15----15-----17----17---------------|
|----------------------------------------------------15~-------|
|--------------------------------------------------------------|

|---------------------------------------------|
|---------------------------------------------|
|----14----14-----14----14-----14----14-------|
|-12----12-----15----15-----17----17----------|
|---------------------------------------15\\--|
|---------------------------------------------|

6:23
|-------------------------------------------------------------------------|
|-------------------------------------10-10------8b-----8b-----8b-----8b--|
|-------------------------------------9--9-------7b-----7b-----7b-----7b--|
|-7-7-7-7-7-7-7-7-7-7-7-7-7~----------7--7--0-5--5b--5--5b--5--5b--5--5b--|
|-7-7-7-7-7-7-7-7-7-7-7-7-7~----------7--7--0-5--5b--5--5b--5--5b--5--5b--|
|-7-7-7-7-7-7-7-7-7-7-7-7-7~----------7--7--0-5--5b--5--5b--5--5b--5--5b--|
 pm----------------------                     v  ^   v  ^   v  ^   V  ^  

6:37
|-------------------------------------------|
|-------------------------------------------|
|-------------------------------------------|
|-------------------------------------------|
|-------------------------------------------|
|-7---------------12----/14--/15--/17b\-----|
Tremolo picking........................

6:55
|--------------------------|
|-10----15-----10----15----|
|-9-----14-----9-----14----|
|-7--0--12--0--7--0--12--0-|
|-7--0--12--0--7--0--12--0-|
|--------------------------|
                     4 times

|-------------------------5------|
|-----8------8---8--8-8-----8----|
|-----7------7---7--7-7-------7\-|
|-5---5------5---5--5-5----------|
|-5---5--------------------------|
|-5---5--------------------------|

7:07
|-------------------------------------------------|
|-------------------------------------------------|
|-2--------2h5p2----------2h5p2--------2h5p2h3p2--|
|--------------------------------------improvise--|
|-------------------------------------------------|
|-------------------------------------------------|
Tremolo pick......................................

7:24
|----------------------------------------------------------------|
|----------------------------------------------------------------|
|----------------------------------------------------------------|
|-5\\14-14--14-14-------15-17--17-17-------17--17-17/--12-12-12/-|
|-------12--12-12--(12)\15-15--15-15--(15)\17--17-17/--12-12-12/-|
|-------12--12-12--(12)\15-15--15-15--(15)\17--17-17/--12-12-12/-|
        v   v  ^        v  v   v  ^        v   v  ^    v  v  v

|--------------------------------------------------------|
|--------------------------------------------------------|
|--------------------------------------------------------|
|-14--14-14-------15-17--17-17-------17--17-17/--12-12/--|
|-12--12-12--(12)\15-15--15-15--(15)\17--17-17/--12-12/--|
|-12--12-12--(12)\15-15--15-15--(15)\17--17-17/--12-12/--|

7:35
|-----------------|------------|
|-----------------|------------|
|-----------------|------------|
|-5-5h7-7~-7~-7~--|-5-5h7-<7b>-|
|-----------------|------------|
|-----------------|------------|

|-------------------------------------------------|
|-------------------------------------------------|
|---------9-9-9--9\12-12--------------------------|
|-5/7-7-7-----------------12-12p11-11-14-11-11----|
|-------------------------------------------12----|
|-------------------------------------------------|

|---------------------------------------------------|
|---------------------------------------------------|
|-------------9-9-9--9\12-12------------------------|
|-5-5/7-7-7-7----------------12-12p11-11-14-11-11---|
|----------------------------------------------12---|
|---------------------------------------------------|
                                             2 times
 
|-----------------------------------------|
|-----------------------------------------|
|-----------------------------------------|
|-5-5/7-7-7---7-(7)/5---5--------------7--|
|-----------7---------5----5-5---4-7-4-0~~|
|-----------------------------------------|

8:18
|-----------------------------------|
|-----------------------------------|
|-----------------------------------|
|---------------------7-7-7-7-7-7-7-|
|-0-0-0-0-0-0-0-0-0-0-0-0-0-0-0-0-0-|
|-----------------------------------|
pm...............


|-----------------------|
|---------------------3-|
|---------------------2-|
|-7-7--2-2--5-5--0-0--0-|
|-7-7--2-2--5-5--0-0--0-|
|-7-7--2-2--5-5--0-0--0-|
                 2 times

|----------------------------|
|--------------------------3-|
|--------------------------2-|
|------7-7--2-2--5-5--0-0--0-|
|-x//--7-7--2-2--5-5--0-0--0-|
|------7-7--2-2--5-5--0-0--0-|
pick scrape

|-------------------------------------------------------|
|---------------------3---------------------------------|
|---------------------2---------------------------------|
|-7-7--3-3--5-5--0-0--0---------0-0--000-0---0-0--000-0-|
|-7-7--3-3--5-5--0-0--0---------0-0--000-0---0-0--000-0-|
|-7-7--3-3--5-5--0-0--0---------0-0--000-0---0-0--000-0-|
                             pm-------

|-------------------------|
|-------------------------|
|-------------------------|
|--------7-7--3-3--\10-10~|
|-12/----7-7--3-3--\10-10~|
|-12/----7-7--3-3--\10-10~|

9:05
|---------------|
|---------------|
|---------------|
|--3-00-3-\10---|
|--3-00-3-\10---|
|--3-00-3-\10---|
         4 times

|---------------------------------------------------------|
|---------------------------------------------------------|
|---------------------------------------------------------|
|---------------------------------------------------------|
|-12~-12~-12~-12~-12~-12~-12~-12~-12~-12~-12~-12~-12~-12b-|
|-0---0---0---0---0---0---0---0---0---0---0---0---0---0---|


9:17
|-----------------------------------|
|-----------------------------------|
|-----------------------------------|
|-----------------------------------|
|-12b-12--12~-12--12b--12--12-12-12-|
|-0---0---0---0---0----0---0--0--0--|
                              4 times

9:29
|----------------------------------|
|----------------------------------|
|----------------------------------|
|-----------1010-10--10\8-8/10-----|
|-12~12~12~-1010-10--10\8-8/10-h12-|
|-0--0--0---1010-10--10\8-8/10-----|
                            3 times


|-----------------------------------|
|-----------------------------------|
|-----------------------------------|
|-----------------------------------|
|-12b-12--12~-12--12b--12--12-12-12-|
|-0---0---0---0---0----0---0--0--0--|


end
|----------------------------------------|
|----------------------------------------|
|----------------------------------------|
|-7--0--10--0-------7--0--10--0--8-------|
|-7--0--10--0-------7--0--10--0--8-------|
|-7--0--10--0-------7--0--10--0--8-------|


Related for Pushit tab
Pushit chords by Tool