Song name
# A B C D E F G H I J K L M N O P Q R S T U V W X Y Z

Tool - Lost Keys tab

Tabbed by Jeff Lindemer (lipanjambi@yahoo.com)

Artist: Tool
Title: Lost Keys (Blame Hoffman)
Album: 10,000 Days

Legend:  h - hammer on
	 / - slide up

Tuning: DADGBe

0:31 - 1:30 | 4/4 + 4/4 + 4/4 + 3/4
e-|------------------------------------|
G-|------------------------------------|
B-|-------------------------------0----| 4x
D-|------0------0------0------0-----0--|
A-|----0------3------0------3---3------|
D-|--0------3------0------3------------|

1:30 - 1:51 | 4/4 + 3/4
e-|----------------------|
G-|----------------------|
B-|-----------------0----|  3x
D-|------0------0-----0--|
A-|----0------3---3------|
D-|--0------3------------|

1:51 - 2:20 | 4/4 + 4/4 + 4/4 + 3/4
e-|------------------------------------|
G-|------------------------------------|
B-|-------------------------------0----|  2x
D-|------0------0------0------0-----0--|
A-|----0------3------0------3---3------|
D-|--0------3------0------3------------|

2:20 - 2:35 | 4/4 + 4/4 + 4/4 + 3/4
e-|---------------------------------------|
G-|---------------------------------------|
B-|-----------------------2----------0----|
D-|------0------0------0---------0-----0--|
A-|----0------3------0---------3---3------|
D-|--0------3------0---------3------------|

2:35 - 2:42 | 4/4 + 3/4
e-|----------------------|
G-|----------------------|
B-|-----------------0----|
D-|------0------0-----0--|
A-|----0------3---3------|
D-|--0------3------------|

2:42 - 2:49 | 4/4 + 3/4
e-|-------------------------|
G-|-------------------------|
B-|---------2----------0----|
D-|------0---------0-----0--|
A-|----0---------3---3------|
D-|--0---------3------------|

2:49 - 2:55 | 4/4 + 3/4
e-|------------------------------|
G-|------------------------------|
B-|---------0h2--0----------0----|
D-|------0--------------0-----0--|
A-|----0--------------3---3------|
D-|--0--------------3------------|

2:55 - 3:10 | 4/4 + 4/4 + 4/4 + 3/4
e-|---------------------------------------|
G-|---------------------------------------|
B-|-----------------------2----------0----|
D-|------0------0------0---------0-----0--|
A-|----0------3------0---------3---3------|
D-|--0------3------0---------3------------|

3:10 - 3:25 | 4/4 + 4/4 + 4/4 + 3/4
e-|--------------------------------------------|
G-|--------------------------------------------|
B-|-----------------------0h2--0----------0----|
D-|------0------0------0--------------0-----0--|
A-|----0------3------0--------------3---3------|
D-|--0------3------0--------------3------------|

3:25 - 3:41
e-|--------------------------------------|
G-|--------------------------------------|
B-|-------------------------------0------|
D-|------0------0------0------0-----0----|
A-|----0------3------0------3---3--------|
D-|--0------3------0------3-----------0--|

2:38 - 3:44
Nurse: Excuse me? Doctor? If you have a moment?
Doctor: A moment? What's the question?
Nurse: More of a situation, a gentleman in exam 3
Doctor: What's the problem?
Nurse: That is the problem, we're not sure.
Doctor: You got the chart?
Nurse: Right here.
Doctor: Hmm.. Not much here is there
Nurse: No doctor, no obvious physical trauma. Vitals are stable.
Doctor: Name?
Nurse: No sir.
Doctor: Did someone drop him off? Maybe we could speak to them. Let's get some 
on this fella.
Nurse: No ID. Nothing and he won't speak to anybody.
Doctor: Well, let's say hello. Good Morning, I'm Dr. Wasson. How are you today? How - 
- you today?! Look son, you're in a safe place. We wanna help in whatever way we can. But 
need to talk to us. We can't help you otherwise. Now what's happened? Tell me everything.

Comment:
Whenever you see this
e-|---------------|
G-|---------------|
B-|----------0----|
D-|------0-----0--|
A-|----3---3------|
D-|--3------------|

It could be this
e-|----------------|
G-|----------------|
B-|-----------0----|
D-|------0------0--|
A-|----3-----------|
D-|--3/////10------|

instead.  It seems to sound better when you do it this way.
Tap to rate this tab
 
# A B C D E F G H I J K L M N O P Q R S T U V W X Y Z