Song name
# A B C D E F G H I J K L M N O P Q R S T U V W X Y Z

Tool - Intension tab

This is the best I could do with the limited videos and listen to the song over, and 
again. Enjoy the work:

Band: TOOL
Album: 10,000 Days
Song: Intension
Tabbed by: Andrew C.
Date tabbed: 8/30/07 (9:25 p.m.)

Tuning: D,A,D,G,B,E (Dropped-D)
__________
LEGEND:

\() = Slide down neck note; (DO NOT confuse with Ghost Note); Tied slide

/() = Slide up neck to note; (DO NOT confuse with Ghost Note); Tied slide

< = Volume swell in (with volume pedal)

h = Hammer-on

* = Indicator
__________

Keep guitar volume low; Delay at 500ms, low level, low delay feedback

Intro with Delay and I'm still debating whether the speeding up and down tremelo is the 
Chopper, so I left the "chopper" as the effect in the indicators, even though I'm not 
certain that's what he uses in the recording:

  <    <       <     <   <
E---------------------------|
B-0----0-------0-----0------|
G-12---11------7\(9)-11--9--|
D------------------------7--| (x2)
A---------------------------|
D---------------------------|

  <    <       <      <   <      <
E-----------------------------------|
B-----------------------------------|
G-10---9-------5\(7)--9---7---------|
D-12---10------5\(7)--7---7---------|
A--------------------------------0--|
D--------------------------------0--|


  <    <       <     <   <
E---------------------------|
B-0----0-------0-----0------|
G-12---11------7\(9)-11--9--|
D------------------------7--|
A---------------------------|
D---------------------------|


(3:52)
With Delay and Chopper, (You can clearly hear some tremelo panning from slow to fast, 
which is why I had thought it was the GFX-Chopper)
E-------------------------------------------------------|
B-------------------------------------------------------|
G-------------------------------------------------------|
D---14---12-14----14---12----14-12--------10--------12--| (x7)
A-12------------12-------12--------12---12--------10----|
D-------------------------------------------------------|

Chopper off. Keep Delay.

E---(Track 1)--|
B--------------|
G--------------|
D-------14-----|
A-12-----------|
D--------------|
|              | (can easily be played together)
E---(Track 2)--|
B--------------|
G--------------|
D----10--------|
A----------10--|
D--------------|

*Track ONE:
E-------------------------------|
B-------------------------------|
G-------------------------------|
D----14----19----17---15--14----| (x3)
A-12----17----15----15--15--15--|
D-------------------------------|

E------------------------------------|
B------------------------------------|
G------------------------------------|
D----14----19----17---15--14---------|
A-12----17----15----15--15--15-/(12)-|
D------------------------------------|

* Track TWO In:
E------------------------|
B------------------------|
G------------------------|
D-9--10-9-/(5)-7---------|
A-------------------0----|
D------------------------|

E--------------------------------------------------------|
B--------------------------------------------------------|
G--------------------------------------------------------|
D-9--10-9-/(5)-7---14---12----9--10-9-/(5)-7---5---7-----| (x2)
A-----------------0----0----0-----------------0---0---0--|
D--------------------------------------------------------|

E------------------|
B------------------|
G------------------|
D-9--10-9-/(5)-h7--|
A------------------|
D------------------|

* Track ONE In as "7" is hit above:
E---------------------------------|
B---------------------------------|
G---------------------------------|
D-12-14--12-14--12-14--14-12-0----| (x2)
A----------------------------12---|
D---------------------------------|

E--------------------------------|
B--------------------------------|
G--------------------------------|
D-12-14----14--12-14--14-12-0----|
A--------12-----------------12---|
D--------------------------------|

E-------------------------------|
B-------------------------------|
G--------------------------*----|
D---14--12-14----14--14-12-0----| *Chopper on
A-12-----------12----------12---|
D-------------------------------|

E-------------------------------------------------------|
B-------------------------------------------------------|
G-------------------------------------------------------|
D---14---12-14----14---12----14-12--------10--------12--| (x2)
A-12------------12-------12--------12---12--------10----|
D-------------------------------------------------------|

  <    <       <      <   <
E-----------------------------|
B-----------------------------|
G-10---9-------5\(7)--9---7---|
D-12---10------5\(7)--7---7---|
A-----------------------------|
D-----------------------------|

  <    <       <      <   <  <
E-------------------------------|
B-------------------------------|
G-10---9-------5\(7)--9---7-----|
D-12---10------5\(7)--7---7-----|
A----------------------------0-*|
D----------------------------0-*|

*Fade into "Right In Two"*

I hope you enjoyed that tab.
Tap to rate this tab
 
# A B C D E F G H I J K L M N O P Q R S T U V W X Y Z