Song name
# A B C D E F G H I J K L M N O P Q R S T U V W X Y Z

Tool - Jambi tab

Band: Tool
Song: "Jambi"
Album: 10,000 Days
pinedaway@gmail.com

   0:00 - 0:15
e |--------------------------------------------------------------|
b |--------------------------------------------------------------|
g |--------------------------------------------------------------|
d |--------------------------------------------------------------|  x6
a |--------------------------------------------------------------|
D |--3p0-0--0--0--0--0--5p0-0--0--0--1p0-0--0--0--10p0-0--0--0---|

   0:15 - 1:03
e |-----------------------------------------------------------|
b |-----------------------------------------------------------|
g |-----------------------------------------------------------|
d |-----------------------------------------------------  x20-|
a |-----------------------------------------------------------|
D |--0--------3p0-0--0--0--0--0--------3p0-0--0--0--0--0------|

   1:03 - 1:15
e |-----------------------------------------------------|
b |--------------------Rest for-------------------------|
g |-----------------------------------------------------|
d |-------------------5 measures------------------------|
a |-----------------------------------------------------|
D |-----------------------------------------------------|

   1:15 - 1:43
e |-----------------------------------------------------------|
b |-----------------------------------------------------------|
g |-----------------------------------------------------------|
d |-----------------------------------------------------  x11-|
a |-----------------------------------------------------------|
D |--0--------0-0-0--0--0--0--0--------0-0-0--0--0--0--0------|
    pm - - - - - - - - - - - - - - - - - - - - - - - - -

   1:43 - 1:51
e |--------------------------------------------------------|
b |--------------------------------------------------------|
g |--------------------------------------------------------|
d |--------------------------------------------------------|  x3
a |--------------------------------------------------------|
D |--0----------3--3--5--5--3-----------3--3--5--5--3--0---|
    pm - - - - - - - - - - - - - - - - - - - - - - - - -

   1:51 - 1:53
e |------------------------------------------------------|
b |------------------------------------------------------|
g |------------------------------------------------------|
d |------------------------------------------------------|
a |-------------------------------------3--3--5--5--3--0-|
D |--0----------3--3--5--5--3b4---------3--3--5--5--3--0-|
    pm - - - - - - - - - -              pm - - - - - - -

   1:53 - 2:03
e |--------------------------------------------------------|
b |--------------------------------------------------------|
g |--------------------------------------------------------|
d |--0----------------------3------------------------------|  x4
a |--0----------3--3--5--5--3-----------3--3--5--5--3--0---|
D |--0----------3--3--5--5--3-----------3--3--5--5--3--0---|
                pm - - - -              pm - - - - - - -

   2:03 - 2:13
e |-----------------------------------------------------|
b |--------------------Let Ring for---------------------|
g |-----------------------------------------------------|
d |--0------------------4 measures----------------------|
a |--0--------------------------------------------------|
D |--0--------------------------------------------------|

   2:13 - 2:31
e |---------------------------------------------------------|
b |---------------------------------------------------------|
g |---------------------------------------------------------|
d |---------------------------------------------------------|  x7
a |---------------------------------------------------------|
D |--0--0-----0--1--1-----1--3--3-----1--3--3--0--0-----0---|
     pm - - - - - - - - - - - - - - - - - - - - - - - - -

   2:31 - 2:33
e |-------------------------------------------------------|
b |-------------------------------------------------------|
g |-------------------------------------------------------|
d |-------------------------------------------------------|
a |-------------------------------------------------------|
D |--0--0--0--0--------0--0--0--0-----0--0--0--0--0--0--0-|
     pm - - - - - - - - - - - - - - - - - - - - - - - - -

   2:33 - 2:41
e |--------------------------------------------------------|
b |--------------------------------------------------------|
g |--------------------------------------------------------|
d |--------------------------------------------------------|  x3
a |--------------------------------------------------------|
D |--0----------3--3--5--5--3-----------3--3--5--5--3--0---|
    pm - - - - - - - - - - - - - - - - - - - - - - - - -

   2:41 - 2:44
e |------------------------------------------------------|
b |------------------------------------------------------|
g |------------------------------------------------------|
d |------------------------------------------------------|
a |-------------------------------------3--3--5--5--3--0-|
D |--0----------3--3--5--5--3b4---------3--3--5--5--3--0-|
    pm - - - - - - - - - -              pm - - - - - - -

   2:44 - 3:04
e |--------------------------------------------------------|
b |--------------------------------------------------------|
g |--------------------------------------------------------|
d |--0----------------------3------------------------------|  x8
a |--0----------3--3--5--5--3-----------3--3--5--5--3--0---|
D |--0----------3--3--5--5--3-----------3--3--5--5--3--0---|
                pm - - - -              pm - - - - - - -

   3:04 - 3:41
e |-----------------------------------------------------------|
b |-----------------------------------------------------------|
g |-----------------------------------------------------------|
d |-----------------------------------------------------  x16-|
a |-----------------------------------------------------------|
D |--0--------3p0-0--0--0--0--0--------3p0-0--0--0--0--0------|
    pm - - - - - - - - - - - - - - - - - - - - - - - - -

   3:41 - 3:55
e |-------------------------------------------------------|
b |-------------------------------------------------------|
g |-------------------------------------------------------|
d |-------------------------------------------------------|
a |-------------------------------------------------------|
D |--0--0-----0--0--0-----0--0--0-----0--0--0--0--0-----0-|
     pm - - - - - - - - - - - - - - - - - - - - - - - - -

e |-------------------------------------------------------|
b |-------------------------------------------------------|
g |-------------------------------------------------------|
d |-------------------------------------------------------|
a |-------------------------------------------------------|
D |--0--0-----0--0--0-----0--0--0--0--0-----0--0--0--0--0-|
     pm - - - - - - - - - - - - - - - - - - - - - - - - -

e |--------------------------------------------------------|
b |--------------------------------------------------------|
g |--------------------------------------------------------|
d |--------------------------------------------------------|
a |--------------------------------------------------------|
D |-----0--0--0-----0--0--0--0--0------0--0--0--0--0-----0-|
        pm - - - - - - - - - - - - - - - - - - - - - - - -

e |-------------------------------------------------------|
b |-------------------------------------------------------|
g |-------------------------------------------------------|
d |-------------------------------------------------------|
a |-------------------------------------------------------|
D |--0--0-----0--0--0-----0--0--0-----0--0--0--0--0-----0-|
     pm - - - - - - - - - - - - - - - - - - - - - - - - -

e |-------------------------------------------------------|
b |-------------------------------------------------------|
g |-------------------------------------------------------|
d |-------------------------------------------------------|
a |-------------------------------------------------------|
D |--0--0-----0--0--0-----0--0--0--0--0-----0--0--0--0--0-|
     pm - - - - - - - - - - - - - - - - - - - - - - - - -

e |-------------------------------------------------------|
b |-------------------------------------------------------|
g |-------------------------------------------------------|
d |-------------------------------------------------------|
a |-------------------------------------------------------|
D |-----0--0--0-----0--0--0--0--0------0--0--0--0--0------|
        pm - - - - - - - - - - - - - - - - - - - - - - - -

   *pause while bass does its slow slide*

   3:56 - 4:09
e |------------------------------------------------------|
b |------------------------------------------------------|
g |------------------------------------------------------|
d |------------------------------------------------------|
a |------------------------------------------------------|
D |--0--0--0--0-----0--0--0--0-----0--0---0---0---0--3---|
     pm - - - - - - - - - - - - - - - - - - - - - -  ph

e |------------------------------------------------------|
b |------------------------------------------------------|
g |------------------------------------------------------|
d |------------------------------------------------------|
a |------------------------------------------------------|
D |--0--0--0--0-----0--0--0--0-----0--0---0---0---0--0---|
     pm - - - - - - - - - - - - - - - - - - - - - -  ph

e |------------------------------------------------------|
b |------------------------------------------------------|
g |------------------------------------------------------|
d |------------------------------------------------------|
a |------------------------------------------------------|
D |--0--0--0--0-----0--0--0--0-----0--0---0---0---0--1---|
     pm - - - - - - - - - - - - - - - - - - - - - -  ph

e |------------------------------------------------------|
b |------------------------------------------------------|
g |------------------------------------------------------|
d |--------------------------------------------------0---|
a |------------------------------------------------------|
D |--0--0--0--0-----0--0--0--0-----0--0---0---0---0------|
     pm - - - - - - - - - - - - - - - - - - - - - -
   I think you switch to talk box on the high open d ^

   Solo (with voice box) - Tabbed by someone other than me

   4:09 - 5:15
|--------------------------------------------------------------------------------------------|
|-6---------8-------5--------3------------3----5----6-------8------5-------3-----------------|
|-8^(10)----10^(12)-7^(9)----5^(7)--------5^(7)7^(9)8^(10)--10^(12)7^(9)---5^(7)slow release-|
|--------------------------------------------------------------------------------------------|
|--------------------------------------------------------------------------------------------|
|--------------------------------------------------------------------------------------------|

|----------------------------------------------------------------|
|-----------------------------------------13-----13--------------|
|-12--10~----14--12~~-12h14p12-11~~~~~~~-----11-----11-----------|
|------------------------------------------------------12-0~~----|
|----------------------------------------------------------------|
|----------------------------------------------------------------|

I haven't figured the timing out on the end of this part, but I just use it in good 
because Jake, or Helod, or whoever it was the put this in did well with the rest.
|-------------------------------------------------------|
|-------------------------------------------------------|
|-12--10~~---14--12~--12h14p12-11~~~~~------------------|
|--------------------------------------10---------------|
|-----------------------------------------10-9----------|
|----------------------------------------------12p0~~---|

e|-----------------------------------------|
b|-----------------------------------------|
g|-----------------------------------------|
d|-----------------------------------------|
a|-----3h5---------3h5-3h5-0--------5------|
D|-3h5-----3---3h5---------0---------------|

I changed the 9 to and 8, the 9 sounds off-key to me, but I think they liked the 9 still *Shrug*
e|-----------------------------------------|
b|-----------------------------------------|
g|-----------------------------------------|
d|-----------------------------\x/---------|
a|-----3h5---8------3h5-3h5----\x/---------|
D|-3h5-----3----3h5---------0--\x/---------|
   End Solo and Talk Box

   5:15 - 5:27
e |--------------------------------------------------------------|
b |--------------------------------------------------------------|
g |--------------------------------------------------------------|
d |--------------------------------------------------------------|  x4
a |--------------------------------------------------------------|
D |--0--0--0-----0--0--0--x--0--0--0-----0--0-0-0-0--0-0-0-0-0---|

   5:27 - 5:57
e |--------------------------------------------------------------|
b |--------------------------------------------------------------|
g |--------------------------------------------------------------|
d |--------------------------------------------------------------|  x9
a |--------------------------------------------------------------|
D |--0--0--0-----0--0--0--x--0--0--0-----0--0-0-0-0--0-0-0-0-0---|
     pm- - - - - - - - - - - - - - - - - - - - - - - - - - - -

   5:57 - 6:17
e |-----------------------------------------------|
b |-----------------------------------------------|
g |-----------------------------------------------|
d |--0-----7--------3h5--3h5--3-----3--5--3--5--7-|
a |--0-----0--------3h5--3h5--3-----3--5--3--5--7-|
D |--0-----------0--3h5--3h5--3-----3--5--3--5--7-|
                                   pm - - - - - -

e |-----------------------------------------------------|
b |-----------------------------------------------------|
g |-----------------------------------------------------|
d |--0-----7--------3h5--3h5--3-------------------------|
a |--0-----0--------3h5--3h5--3-------------------------|
D |--0-----------0--3h5--3h5--3-----3-3-5-5-3-3-2-2-0-0-|
                                   pm - - - - - - - - -

e |-----------------------------------------------|
b |-----------------------------------------------|
g |-----------------------------------------------|
d |--0-----7--------3h5--3h5--3-----3--5--3--5--7-|
a |--0-----0--------3h5--3h5--3-----3--5--3--5--7-|
D |--0-----------0--3h5--3h5--3-----3--5--3--5--7-|
                                   pm - - - - - -

e |-----------------------------------------------------|
b |-----------------------------------------------------|
g |-----------------------------------------------------|
d |--0-----7--------3h5--3h5--3-------------------------|
a |--0-----0--------3h5--3h5--3-------------------------|
D |--0-----------0--3h5--3h5--3-----3-3-5-5-3-3-2-2-0-0-|
                                   pm - - - - - - - - -

   6:17 - 6:36

   Guitar 1 - Left Channel
e |-----------------------------------------|
b |-----------------------------------------|
g |-----------------------------------------|
d |--0-----\7--0--3\5--3\5--3--5--5--5--5h7-|
a |-----------------------------------------|
D |-----------------------------------------|

e |-----------------------------------------|
b |-----------------------------------------|
g |-----------------------------------------|
d |--0-----\7--0--3\5--3\5--3--5--5--5--5h7-|
a |-----------------------------------------|
D |-----------------------------------------|

   Okay, I'd swear he kicks the talk
   box on right here ------>*
                               and he uses it on these
                               last 5 notes to "say"
                               Benevolent son as
                               Maynard sings it.
e |-------------------------------------------|
b |-------------------------------------------|
g |-------------------------------------------|
d |--0-----\7--0--3\5--3\5--3--10-10-10-10-12-|
a |-------------------------------------------|
D |-------------------------------------------|

e |----------------------------------------------------|
b |----------------------------------------------------|
g |----------------------------------------------------|
d |--0--14--0--10\12--10\12--10-10-12-12-9-9-10-10-7-7-|
a |----------------------------------------------------|
D |----------------------------------------------------|


   Guitar 2 - Right Channel
e |--------------------------------------------|
b |--------------------------------------------|
g |--------------------------------------------|
d |--0-----\7--0--3h5--3h5--3--3/5--5-/-3--5\7-|
a |--------------------------------------------|
D |--------------------------------------------|

e |-------------------------------------------|
b |-------------------------------------------|
g |-------------------------------------------|
d |--0-----\7--0--3h5--3h5--3-----10--10--10--|
a |-------------------------------------------|
D |-------------------------------------------|

e |--------------------------------------------|
b |--------------------------------------------|
g |--------------------------------------------|
d |--12--------0--3h5--3h5--3--3/5--5-/-3--5\7-|
a |---------0----------------------------------|
D |--------------------------------------------|

e |------------------------------------------------|
b |------------------------------------------------|
g |------------------------------------------------|
d |--0-----\7--0--3h5--3h5--3--3-3-5-5-3-3-2-2-0-0-|
a |------------------------------------------------|
D |------------------------------------------------|

   Whatever effects there were are now off

   6:36 - 6:57
e |--------------------------------------|
b |--------------------------------------|
g |--------------------------------------|
d |--------------------------------------|  x7
a |------------3--------------3----3h5---|
D |--0-----3h5---h5-3-----3h5---h5-------|

e |------------------------------------|
b |------------------------------------|
g |------------------------------------|
d |------------------------------------|
a |------------3--------------3--------|
D |--0-----3h5---h5-3-----3h5---h5-3p0-|
                                   pm-

   6:57 - 7:06
e |--------------------------------------------------------------|
b |--------------------------------------------------------------|
g |--------------------------------------------------------------|
d |--------------------------------------------------------------|  x4
a |--------------------------------------------------------------|
D |--3p0-0--0--0--0--0--5p0-0--0--0--1p0-0--0--0--10p0-0--0--0---|
    pm - - - - - - - - - - - - - - - - - - - - - - - - - - - -

   7:06 - 7:16
e |-----------------------------------------------------|
b |-----------------------------------------------------|
g |-----------------------------------------------------|
d |-----------------------------------------------------|  x4
a |------------------------------------------3----3h5---|
D |--0--0--0-----0--0--0-----0--0--0---0-3h5---h5-------|
    pm - - - - - - - - - - - - - - - - -

   7:16 - end
e |----------------------------------------------------------------------|
b |----------------------------------------------------------------------|
g |----------------------------------------------------------------------|
d |----------------------------------------------------------------------|
a |----------------------------------------------------------------------|
D |--0--0--0-----0--0--0-----0--0--0-----0--0--0--0--0-----0--0--0--0--0-|
     pm - - - - - - - - - - - - - - - - - - - - - - - - - - - - - - -
Tap to rate this tab
# A B C D E F G H I J K L M N O P Q R S T U V W X Y Z