Song name
# A B C D E F G H I J K L M N O P Q R S T U V W X Y Z

Tora Tora - Phantom Rider tab

#----------------------------------PLEASE NOTE---------------------------------#
#This file is the author's own work and represents their interpretation of the #
#song. You may only use this file for private study, scholarship, or research. #
#------------------------------------------------------------------------------##

*NOTE: This tab has been exported from the Power Tab version also found under Tora Tora 
Phantom Rider. I exported it into regular tab format for those of you who don't have 
Tab or who (like myself) hate it and would rather read simple text tabs.

                                  PHANTOM RIDER
                            As recorded by Tora Tora
                      (From the 1989 Album SURPRISE ATTACK)

Words and Music by A. Corder/T. Howard
Transcribed by Matthew Aken

Gtr I (E A D G B E) - 'Acoustic'
Gtr II (E A D G B E) - 'Electric Clean'
Gtr III (E A D G B E) - 'Electric Dist'
Gtr IV (E A D G B E) - 'd2'

 Intro
  Q=130
  Emadd9                            D
 4/4
  Gtr I
  H    +E   Q.     +H     E  Q.     Q.   E E E E E   +E  E E E E E E E
|----------^2----|-(2)------^2----|--------0h2-----|-----------3p2-----|
|----------^0----|-(0)------^0----|------------3---|---------3-----3---|
|----------^0----|-(0)------^0----|------2-------2-|-(2)---2---------2-|
|----------^2----|-(2)------^2----|-0--------------|-----0-------------|
|----------^2----|-(2)------------|----------------|-------------------|
|-0----(0)-^0----|-(0)----0-------|----------------|-------------------|


  Bm                                 C
                  7/8               4/4
                                                                  ~
  Q  E E E E E E   +E  E E E E E E   E E E E E E E E   Q  E E E E Q
|--------0-------|-----------0-----|-----------0-----|----------0----|
|----------3-----|-------------3---|---------1---1---|---------------|
|------4-----4---|---------4-------|-------0-------0-|--------0------|
|----4---------4-|-(4)---4---------|-----2-----------|-2----2--------|
|-2--------------|-----2---------0-|-2-3-------------|----3----------|
|----------------|-----------------|-----------------|------------3--|


 Verse
  Emadd9                            D
  H    +E   Q.     +H     E  Q.     Q.   E E E E E   +E  E E E E E E E
|----------^2----|-(2)------^2----|--------0h2-----|-----------3p2------|
|----------^0----|-(0)------^0----|------------3---|---------3-----3----|
|----------^0----|-(0)------^0----|------2-------2-|-(2)---2---------2--|
|----------^2----|-(2)------^2----|-0--------------|-----0--------------|
|----------^2----|-(2)------------|----------------|--------------------|
|-0----(0)-^0----|-(0)----0-------|----------------|--------------------|


  Bm                                 C
                  7/8               4/4
                                                                  ~
  Q  E E E E E E   +E  E E E E E E   E E E E E E E E   Q  E E E E Q
|--------0-------|-----------0-----|-----------0-----|----------0----|
|----------3-----|-------------3---|---------1---1---|---------------|
|------4-----4---|---------4-------|-------0-------0-|--------0------|
|----4---------4-|-(4)---4---------|-----2-----------|-2----2--------|
|-2--------------|-----2---------0-|-2-3-------------|----3----------|
|----------------|-----------------|-----------------|------------3--|


  Emadd9                            D
  H    +E   Q.     +H     E  Q.     Q.    E E E E E   +E E E E  E  E E E
|----------^2----|-(2)------^2----|---------0h2-----|-----------3p=2------|
|----------^0----|-(0)------^0----|-------------3---|--------3-------3----|
|----------^0----|-(0)------^0----|-------2-------2-|-(2)--2-----------2--|
|----------^2----|-(2)------^2----|-0---------------|----0----------------|
|----------^2----|-(2)------------|-----------------|---------------------|
|-0----(0)-^0----|-(0)----0-------|-----------------|---------------------|
|
| Gtr II
| W                 W               Q   E E E E E E    E E E E +H
|----------------|----------------|---------0h2-----|--3p2----------------|
|----------------|----------------|-----3-------3---|------3--------------|
|----------------|----------------|-------2-------2-|--------2-(2)--------|
|----------------|----------------|-0---------------|---------------------|
|----------------|----------------|-----------------|---------------------|
|----------------|----------------|-----------------|---------------------|


  Bm                                 C
                  7/8               4/4
  Q  E E E E E E   +E  E E E E E E   E E E E E E E E   Q  E E E E +Q
|--------0-------|-----------0-----|-----------0-----|----------0-(0)--|
|----------3-----|-------------3---|---------1---1---|----------1-(1)--|
|------4-----4---|---------4-------|-------0-------0-|--------0-0-(0)--|
|----4---------4-|-(4)---4---------|-----2-----------|-2----2----------|
|-2--------------|-----2---------0-|-2-3-------------|----3------------|
|----------------|-----------------|-----------------|-----------------|


 Chorus
  Dsus2                                 Dsus2/C
  E E E E E E E E   +E  E E E E E E E   E E E E E E E E   +E  E E E E E E E
|---------0-------|-----------0-------|---------0-------|-----------0--------|
|---3-------3---3-|-(3)-3-------3---3-|---3-------3---3-|-(3)-3-------3---3--|
|-----2-------2---|-------2-------2---|-----2-------2---|-------2-------2----|
|-------0---------|---------0---------|-------0---------|---------0----------|
|-5---------------|-(5)---------------|-3---------------|-(3)----------------|
|-----------------|-------------------|-----------------|--------------------|
  W                 +W                  W                 +W


  Dsus2/G
  E E E E E E E E   +E  E E E E E E E
|---------0-------|-----------0-------|
|---3-------3---3-|-(3)-3-------3---3-|
|-----2-------2---|-------2-------2---|
|-------0---------|---------0---------|
|-----------------|-------------------|
|-3---------------|-(3)---------------|
  W                 +W


  N.C.
  E E E E +E  E E E   E E E E +E  E S S E
|-------------------|---------------------|
|-------------------|---------------------|
|-----0---------0---|-----0---------------|
|---0---------0---0-|---0---------0-0h2p0-|
|-------------------|-1-----3-(3)---------|
|-1-----3-(3)-------|---------------------|


                                     Verse
  D           DsDs2       DsDs2       Emadd9
 7/8                 4/4
                                 ~
  E +E  E E E E  E    +E  E H    Q    H    +E   Q.     +H     E  Q.
|-------------0h=2--|-(2)-0-2-------|----------^2----|-(2)------^2----|
|-------3-----3-(3)-|-(3)-3-3-------|----------^0----|-(0)------^0----|
|---------2---2-(2)-|-(2)-2-2-------|----------^0----|-(0)------^0----|
|-0-(0)-----0-0-(0)-|-(0)-0-0-------|----------^2----|-(2)------^2----|
|-------------------|---------------|----------^2----|-(2)------------|
|-------------------|------------3--|-0----(0)-^0----|-(0)----0-------|


  D                                    Bm
                                                       7/8
  Q.   E E E E E   +E  E E E E E E E   Q  E E E E E E   +E  E E E E E E
|--------0h2-----|-----------3p2-----|--------0-------|-----------0------|
|------------3---|---------3-----3---|----------3-----|-------------3----|
|------2-------2-|-(2)---2---------2-|------4-----4---|---------4--------|
|-0--------------|-----0-------------|----4---------4-|-(4)---4----------|
|----------------|-------------------|-2--------------|-----2---------0--|
|----------------|-------------------|----------------|------------------|


  C                                 Emadd9
 4/4
                               ~
  E E E E E E E E   Q  E E E E Q    H    +E   Q.     +H     E  Q.
|-----------0-----|----------0----|----------^2----|-(2)------^2----|
|---------1---1---|---------------|----------^0----|-(0)------^0----|
|-------0-------0-|--------0------|----------^0----|-(0)------^0----|
|-----2-----------|-2----2--------|----------^2----|-(2)------^2----|
|-2-3-------------|----3----------|----------^2----|-(2)------------|
|-----------------|------------3--|-0----(0)-^0----|-(0)----0-------|


  D                                    Bm
                                                       7/8
  Q.   E E E E E   +E  E E E E E E E   Q  E E E E E E   +E  E E E E E E
|--------0h2-----|-----------3p2-----|--------0-------|-----------0------|
|------------3---|---------3-----3---|----------3-----|-------------3----|
|------2-------2-|-(2)---2---------2-|------4-----4---|---------4--------|
|-0--------------|-----0-------------|----4---------4-|-(4)---4----------|
|----------------|-------------------|-2--------------|-----2---------0--|
|----------------|-------------------|----------------|------------------|


                                     Chorus
  C                                   Dsus2
 4/4
  E E E E E E E E   Q  E E E E +Q     E E E E E E E E   +E  E E E E E E E
|-----------0-----|----------0-(0)--|---------0-------|-----------0-------|
|---------1---1---|-----------------|---3-------3---3-|-(3)-3-------3---3-|
|-------0-------0-|--------0--------|-----2-------2---|-------2-------2---|
|-----2-----------|-2----2----------|-------0---------|---------0---------|
|-2-3-------------|----3------------|-5---------------|-(5)---------------|
|-----------------|-----------------|-----------------|-------------------|
                                      W                 +W


  Dsus2/C                               Dsus2/G
  E E E E E E E E   +E  E E E E E E E   E E E E E E E E   +E  E E E E E E E
|---------0-------|-----------0-------|---------0-------|-----------0--------|
|---3-------3---3-|-(3)-3-------3---3-|---3-------3---3-|-(3)-3-------3---3--|
|-----2-------2---|-------2-------2---|-----2-------2---|-------2-------2----|
|-------0---------|---------0---------|-------0---------|---------0----------|
|-3---------------|-(3)---------------|-----------------|--------------------|
|-----------------|-------------------|-3---------------|-(3)----------------|
  W                 +W                  W                 +W


  N.C.
  E E E E +E  E E E   E E E E +E  E S S E
|-------------------|---------------------|
|-------------------|---------------------|
|-----0---------0---|-----0---------------|
|---0---------0---0-|---0---------0-0h2p0-|
|-------------------|-1-----3-(3)---------|
|-1-----3-(3)-------|---------------------|


              DsDs2       DsDs2
 7/8                 4/4
  E +E  E E E E  E    +E  E H    +Q
|-------------0h=2--|-(2)-0-2----(2)---|
|-------3-----3-(3)-|-(3)-3-3----(3)---|
|---------2---2-(2)-|-(2)-2-2----(2)---|
|-0-(0)-----0-0-(0)-|-(0)-0-0----(0)---|
|-------------------|------------------|
|-------------------|------------------|


 Interlude
  Fmaj7          C                 G
  H    E E E E   E E E E E E E E   E E E E E E E E   E +E  E E E Q.
|-0------------|-----------------|-----------3-----|-------------3-----|
|-1------------|---------1-------|-------------3---|-------------3-----|
|-2------------|-0-----0---------|---------0-----0-|-------------0-----|
|-3----3-3-2-0-|-----2-----------|-0-----0---------|-----------0-------|
|--------------|---3-------3-2-0-|-----2-----------|---------2---------|
|--------------|-----------------|---3-------------|-3-(3)-3-----------|


  Fmaj7             C                 G
  E E E E E E E E   E E E E E E E E   E E E E E E E E   W
|-------0---------|-----------------|---------3-------|-3----|
|-----1-----------|-------1---------|-----------3-----|-3----|
|---2-----------0-|-----0-----------|-------0-----0---|-0----|
|-3-------3-2-0---|---2-----------0-|-----0---------0-|-0----|
|-----------------|-3-------3-2-0---|---2-------------|-2----|
|-----------------|-----------------|-3---------------|-3----|


 Bridge
  Eadd9               B6/D#               Bm6/D                   B5/FF#maj7sus4
  E E E E E E +E  E   E E E E E E +E  E   E E E E E E +E  E   E E E E H
|-------2-0h2-(2)---|-2-----2-0h2-(2)---|-------2-0h2-(2)---|-----2---1----|
|-----0-------------|-0---0-------------|-----0-------------|-----0---0----|
|---1---------------|-1-1---------------|---1---------------|-----4---4----|
|-2---------------2-|-1---------------1-|-0---------------0-|-----4---4----|
|-------------------|-------------------|-------------------|-4------------|
|-------------------|-------------------|-------------------|--------------|


 Pre-Verse
  C#5D5 D#5E5                                 D5
               5/4                   4/4
  Gtr III
  Q  Q  Q  Q    +Q   E E E E +H       +Q   Q  H      E E E E +H
|-------------|---------------------|--------------|----------------|
|-------------|---------------------|--------------|----------------|
|-------------|---------------------|--------------|----------------|
|-6--7--8--9--|-(9)--9---9-9-(9)----|-(9)--9--7----|-7---7-7-(7)----|
|-4--5--6--7--|-(7)--7---7-7-(7)----|-(7)--7--5----|-5---5-5-(5)----|
|-------------|---------------------|--------------|----------------|


          C5                              B5
  +Q   Q  H      E E E E +H       +Q   Q  H      E E E E +H
|--------------|----------------|--------------|----------------|
|--------------|----------------|--------------|----------------|
|--------------|----------------|--------------|----------------|
|-(7)--7--5----|-5---5-5-(5)----|-(5)--5--4----|-4---4-4-(4)----|
|-(5)--5--3----|-3---3-3-(3)----|-(3)--3--2----|-2---2-2-(2)----|
|--------------|----------------|--------------|----------------|


                Verse
       G5 E5     E5                      D5
  +Q   Q  H      E E E E +H       +H     H      E E E E +H
|--------------|----------------|-------------|----------------|
|--------------|----------------|-------------|----------------|
|------0-------|----------------|-------------|----------------|
|-(4)--0--2----|-9---9-9-(9)----|-(9)----7----|-7---7-7-(7)----|
|-(2)-----2----|-7---7-7-(7)----|-(7)----5----|-5---5-5-(5)----|
|------3--0----|----------------|-------------|----------------|


         B5                               C5
  +H     H      E E E E +H       +Q   E E H      E E E E +H
|-------------|----------------|---------------|----------------|
|-------------|----------------|---------------|----------------|
|-------------|----------------|---------------|----------------|
|-(7)----4----|-4---4-4-(4)----|-(4)------5----|-5---5-5-(5)----|
|-(5)----2----|-2---2-2-(2)----|-(2)--0-2-3----|-3---3-3-(3)----|
|-------------|----------------|---------------|----------------|


       G5 E5     E5                      D5
  +Q   Q  H      E E E E +H       +H     H      E E E E +H
|--------------|----------------|-------------|----------------|
|--------------|----------------|-------------|----------------|
|------0-------|----------------|-------------|----------------|
|-(5)--0--2----|-9---9-9-(9)----|-(9)----7----|-7---7-7-(7)----|
|-(3)-----2----|-7---7-7-(7)----|-(7)----5----|-5---5-5-(5)----|
|------3--0----|----------------|-------------|----------------|


         B5                               C5
  +H     H      E E E E +H       +Q   E E H      E E E E +H
|-------------|----------------|---------------|----------------|
|-------------|----------------|---------------|----------------|
|-------------|----------------|---------------|----------------|
|-(7)----4----|-4---4-4-(4)----|-(4)------5----|-5---5-5-(5)----|
|-(5)----2----|-2---2-2-(2)----|-(2)--0-2-3----|-3---3-3-(3)----|
|-------------|----------------|---------------|----------------|


 Chorus
  Dsus2                                 Dsus2/C
  E E E E E E E E   +E  E E E E E E E   E E E E E E E E   +E  E E E E E E E
|---------0-------|-----------0-------|---------0-------|-----------0--------|
|---3-------3---3-|-(3)-3-------3---3-|---3-------3---3-|-(3)-3-------3---3--|
|-----2-------2---|-------2-------2---|-----2-------2---|-------2-------2----|
|-0-----0---------|---------0---------|-------0---------|---------0----------|
|-----------------|-------------------|-3---------------|--------------------|
|-----------------|-------------------|-----------------|--------------------|


  Dsus2/G
  E E E E E E E E   +E  E E E E E E E
|---------0-------|-----------0-------|
|---3-------3---3-|-(3)-3-------3---3-|
|-----2-------2---|-------2-------2---|
|-------0---------|---------0---------|
|-----------------|-------------------|
|-3---------------|-------------------|


  N.C.
  E E E E +E  E E E   E E E E +E  E S S E
|-------------------|---------------------|
|-------------------|---------------------|
|-----0---------0---|-----0---------------|
|---0---------0---0-|---0---------0-0h2p0-|
|-------------------|-1-----3-(3)---------|
|-1-----3-(3)-------|---------------------|


                                  Interlude
  D                                Fmaj7             C
 7/8                 4/4
  E +E  E E E E +E    +W           E E E E E E E E   E E E E E E E E
|-------------------|------------|-------0---------|-----------------|
|-------3-----------|------------|-----1-----------|-------1---------|
|---------2---2-(2)-|-(2)--------|---2-----------0-|-----0-----------|
|-0-(0)-----0-0-(0)-|-(0)--------|-3-------3-2-0---|---2-----------0-|
|-------------------|------------|-----------------|-3-------3-2-0---|
|-------------------|------------|-----------------|-----------------|


  G                         Fmaj7             C
 3/4         4/4
  Q.   E Q    E H..         E E E E E E E E   E E E E E E E E
|--------3--|---3---------|-------0---------|------------------|
|--------3--|---3---------|-----1-----------|-------1----------|
|--------0--|---0---------|---2-----------0-|-----0------------|
|-----------|-------------|-3-------3-2-0---|---2-----------0--|
|-----------|-------------|-----------------|-3-------3-2-0----|
|-3----3----|-3-----------|-----------------|------------------|


                           Guitar Solo
  G                                         E5
 3/4         4/4
                                  ~
  Q.   E Q    E H..           Q   Q  H       Q       E     H            +E
|--------3--|---3---------|---------------|-----------------------------------|
|--------3--|---3---------|---------------|-12------12----12-----------(12)---|
|--------0--|---0---------|---------------|-14b16---14b16-14b16========(14)r--|
|-----------|-------------|---------------|-----------------------------------|
|-----------|-------------|---------------|-----------------------------------|
|-3----3----|-3-----------|-/17\--3--0----|-----------------------------------|
|
| Gtr IV
| H.          W               W              E    E  E     E     +H
|-----------|-------------|---------------|-----------------------------------|
|-----------|-------------|---------------|-----------------------------------|
|-----------|-------------|---------------|-----------------------------------|
|-----------|-------------|---------------|--9-------9-----9-----(9)----------|
|-----------|-------------|---------------|--7-------7-----7-----(7)----------|
|-----------|-------------|---------------|-----------------------------------|


             D5
                                               |------6-------|
   Q.      E  H          +H             E   E  S  S  S  S  S  S
|---------------------|-----------------------------------------|
|-12------12-15b17----|-(15)pb17-------17--19-20-19h20p19p17----|
|-14b16---------------|--------------------------------------19-|
|---------------------|-----------------------------------------|
|---------------------|-----------------------------------------|
|---------------------|-----------------------------------------|
|
| +H          H           E      E E E +H
|---------------------|-----------------------------------------|
|---------------------|-----------------------------------------|
|---------------------|-----------------------------------------|
|-(9)---------7-------|---7--------7-7-(7)----------------------|
|-(7)---------5-------|---5--------5-5-(5)----------------------|
|---------------------|-----------------------------------------|


                           B5
          |------6-------|        |------6-------|
   E   E  S  S  S  S  S  S  E  E  S  S  S  S  S  S    H           H
|--------------------------------------------------|--------------------|
|-17--19-20-19h20p19p17----17-19-20-19h20p19p17----|--------------------|
|-----------------------19----------------------19-|-19b21-------19-----|
|--------------------------------------------------|--------------------|
|--------------------------------------------------|--------------------|
|--------------------------------------------------|--------------------|
|
| +H                        H                         E    E E E +H
|--------------------------------------------------|--------------------|
|--------------------------------------------------|--------------------|
|--------------------------------------------------|--------------------|
|-(7)-----------------------4----------------------|--4------4-4-(4)----|
|-(5)-----------------------2----------------------|--2------2-2-(2)----|
|--------------------------------------------------|--------------------|


              C5
                    T         T                T                       T       T
              |----5-----|    |------6------|  |-----6------|  |-----6------|  |------6------|
   +H.        S  S  S S  S    S  S  S  S S  S  S S  S  S S  S  S S  S  S S  S  S  S  S  SS  S
|-------------7h10-15p7h10-|-14p=7h10-15p7h10-14p7h10-15p7h10-14p7h10-15p7h10-14p=7h10-15p7h10-|
|--------------------------|-------------------------------------------------------------------|
|-(19)---------------------|-------------------------------------------------------------------|
|--------------------------|-------------------------------------------------------------------|
|--------------------------|-------------------------------------------------------------------|
|--------------------------|-------------------------------------------------------------------|
|
|  +H     E E Q              +Q                E       E       E       E      +Q
|--------------------------|-------------------------------------------------------------------|
|--------------------------|-------------------------------------------------------------------|
|--------------------------|-------------------------------------------------------------------|
|--(4)--------5------------|-(5)---------------5---------------5-------5------(5)--------------|
|--(2)----0-2-3------------|-(3)---------------3---------------3-------3------(3)--------------|
|--------------------------|-------------------------------------------------------------------|


                   G5     E5             E5
   |------6------|        |-3-| |-3--|   |--3--| |--3---|  |-3--| |-3--|
   S  S  S  S S  S  Q     E E E E  E E   E E   E E  E   E  E  E E E  E E
|-14p=7h10-15p7h10--7\-----------------|------------------------------------|
|------------------10b12--7p5-8p5-10p5-|-7p5---8p5-10p==5--7p=5-8p5-10p5----|
|--------------------------------------|------------------------------------|
|--------------------------------------|------------------------------------|
|--------------------------------------|------------------------------------|
|--------------------------------------|------------------------------------|
|
| +Q                Q     H              E   E   E    E   +H
|--------------------------------------|------------------------------------|
|--------------------------------------|------------------------------------|
|-------------------0------------------|------------------------------------|
|-(5)---------------0-----2------------|-9-------9----9---(9)---------------|
|-(3)---------------------2------------|-7-------7----7---(7)---------------|
|-------------------3-----0------------|------------------------------------|


                 D5
   |-3--| |-3--|     |----6----|   |----6----| |----6----|  |----6-----|
   E  E E E  E E E E S S S S S S   S S S S S S S S S S S S  S  S S S S S S S S S
|--------------------------------|-----------------------------------------------|
|--7p=5-8p5-10p5-7-8-8-8s7p5-----|-----------------------------------------------|
|----------------------------7-5-|-4-----------4-------------------4-----4-----4-|
|--------------------------------|---7-5-4-------7-5-4------4--------7-5---7-5---|
|--------------------------------|---------7-5---------7-5-----7-5---------------|
|--------------------------------|-----------------------------------------------|
|
| +H             H                 E     E     E     E     +H
|--------------------------------|-----------------------------------------------|
|--------------------------------|-----------------------------------------------|
|--------------------------------|-----------------------------------------------|
|-(9)------------7---------------|-7-----------7-----7-----(7)-------------------|
|-(7)------------5---------------|-5-----------5-----5-----(5)-------------------|
|--------------------------------|-----------------------------------------------|


           B5
   TP  ~~
   Q   H.         E E S S S S  E  E E E
|---------------|-------------------5-7--|
|---------------|-7-8-7h8p7p5--7--8------|
|--5S==7--------|------------------------|
|---------------|------------------------|
|---------------|------------------------|
|---------------|------------------------|
|
| +H       H      E E E   E   +H
|---------------|------------------------|
|---------------|------------------------|
|---------------|------------------------|
|-(7)------4----|-4---4---4---(4)--------|
|-(5)------2----|-2---2---2---(2)--------|
|---------------|------------------------|


                       C5
          |----6-----|  |----6----| |----6----|
   E   E  S S S  S S S  S S S S S S S S S S S S
|--8--10-10p8p7-10-8p7--------------------------|
|----------------------10-8-7-8p7h8p7h8p7h8p7h8-|
|-----------------------------------------------|
|-----------------------------------------------|
|-----------------------------------------------|
|-----------------------------------------------|
|
| +Q      E      E      H
|-----------------------------------------------|
|-----------------------------------------------|
|-----------------------------------------------|
|-(4)-------------------5-----------------------|
|-(2)-----0------2------3-----------------------|
|-----------------------------------------------|


                       Chorus
                        Dsus2
  H.            +Q       H          +H          +W
|---------------------|-----------------------|----------------------|
|---------------------|-----------------------|----------------------|
|-9-------------(9)\--|-[2]b4r======(2)-------|-(2)------------------|
|---------------------|-----------------------|----------------------|
|---------------------|-----------------------|----------------------|
|---------------------|-----------------------|----------------------|
|
| E  E E E +H            E    E E E  E  E E E   +E  E E E E E E E
|---------------------|--------------0--------|-----------0----------|
|---------------------|-------3---------3---3-|-(3)-3-------3---3----|
|---------------------|---------2---------2---|-------2-------2------|
|-5----5-5-(5)--------|--0--------0-----------|---------0------------|
|-3----3-3-(3)--------|-----------------------|----------------------|
|---------------------|-----------------------|----------------------|


  Dsus2/C                               Dsus2/G
  E E E E E E E E   +E  E E E E E E E   E E E E E E E E   +E  E E E E E E E
|---------0-------|-----------0-------|---------0-------|-----------0--------|
|---3-------3---3-|-(3)-3-------3---3-|---3-------3---3-|-(3)-3-------3---3--|
|-----2-------2---|-------2-------2---|-----2-------2---|-------2-------2----|
|-------0---------|---------0---------|-------0---------|---------0----------|
|-3---------------|-------------------|-----------------|--------------------|
|-----------------|-------------------|-3---------------|--------------------|


  N.C.                                      D
                                           7/8                 4/4
  E E E E +E  E E E   E E E E +E  E S S E   E +E  E E E E +E    +W
|-------------------|---------------------|-------------------|--------|
|-------------------|---------------------|-------3-----------|--------|
|-----0---------0---|-----0---------------|---------2---2-(2)-|-(2)----|
|---0---------0---0-|---0---------0-0h2p0-|-0-(0)-----0-0-(0)-|-(0)----|
|-------------------|-1-----3-(3)---------|-------------------|--------|
|-1-----3-(3)-------|---------------------|-------------------|--------|


 Out-Chorus
  Fmaj7             C                 G
                                     3/4         4/4
  E E E E E E E E   E E E E E E E E   Q.   E Q    E H..
|-------0---------|-----------------|--------3--|---3------|
|-----1-----------|-------1---------|--------3--|---3------|
|---2-----------0-|-----0-----------|--------0--|---0------|
|-3-------3-2-0---|---2-----------0-|-----------|----------|
|-----------------|-3-------3-2-0---|-----------|----------|
|-----------------|-----------------|-3----3----|-3--------|


  Fmaj7             C                 G
                                                  >
  E E E E E E E E   E E E E E E E E   W          +W
|-------0---------|-----------------|-3--------|-(3)----|
|-----1-----------|-------1---------|-3--------|-(3)----|
|---2-----------0-|-----0-----------|-0--------|-(0)----|
|-3-------3-2-0---|---2-----------0-|-0--------|-(0)----|
|-----------------|-3-------3-2-0---|-2--------|-(2)----|
|-----------------|-----------------|-3--------|-(3)----|


 Outro
  Eadd9               B6/D#               Bm6/D                   B5/F#F#maj7sus4
  Gtr I
  E E E E E E +E  E   E E E E E E +E  E   E E E E E E +E  E   E E  E E  H
|-------2-0h2-(2)---|-------2-0h2-(2)---|-------2-0h2-(2)---|-----^2---^1----*|
|-----0-------------|-----0-------------|-----0-------------|-----^0---^0----*|
|---1---------------|---1---------------|---1---------------|-----^4---^4----*|
|-2---------------2-|-1---------------1-|-0---------------0-|-----^4---^4----*|
|-------------------|-------------------|-------------------|-4--------------*|
|-------------------|-------------------|-------------------|----------------*|


Duration Legend
---------------
W - whole; H - half; Q - quarter; E - 8th; S - 16th; T - 32nd; X - 64th; a - acciaccatura
+ - note tied to previous; . - note dotted; .. - note double dotted
Uncapitalized letters represent notes that are staccato (1/2 duration)
Irregular groupings are notated above the duration line
Duration letters will always appear directly above the note/fret number it represents the
duration for.  Duration letters with no fret number below them represent rests.  Multi-
bar rests are notated in the form Wxn, where n is the number of bars to rest for.  Low
melody durations appear below the staff

Tablature Legend
----------------
 h   - hammer-on
 p   - pull-off
 b   - bend
 pb  - pre-bend
 r   - bend release (if no number after the r, then release immediately)
 /\  - slide into or out of (from/to "nowhere")
 s   - legato slide
 S   - shift slide
  - natural harmonic
[n]  - artificial harmonic
n(n) - tapped harmonic
 ~   - vibrato
 tr  - trill
 T   - tap
 TP  - trem. picking
 PM  - palm muting
\n/  - tremolo bar dip; n = amount to dip
 \n  - tremolo bar down
 n/  - tremolo bar up
/n\  - tremolo bar inverted dip
 =   - hold bend; also acts as connecting device for hammers/pulls
 <>  - volume swell (louder/softer)
 x   - on rhythm slash represents muted slash
 o   - on rhythm slash represents single note slash

Misc Legend
-----------
 |  - bar
||  - double bar
||o - repeat start
o|| - repeat end
*|  - double bar (ending)
 :  - bar (freetime)
 $  - Segno
 &  - Coda
Tempo markers -  = BPM(8/16=s8/s16), where s8 = swing 8ths, s16 = swing 16ths


***************************************************************************************
* Generated using Power Tab Editor by Brad Larsen - http://powertab.guitarnetwork.org *
***************************************************************************************
Tap to rate this tab
# A B C D E F G H I J K L M N O P Q R S T U V W X Y Z