Song name
# A B C D E F G H I J K L M N O P Q R S T U V W X Y Z

Tori Kelly - Pyt tab

Tabbed by: tiffernyy
http://www.youtube.com/watch?v=iTHO6IX3Tp8
im pretty sure this is correct! strumming is kinda hard to explain so watch her video ! thanks
Tuning: Standard

Where did you come from baby
    dd    d     d (hit) uu    ud
e|---9----11----12------14-----9----------------------------------------------|
B|---0----0-----11------0------0----------------------------------------------|
G|---9----11----13------14-----9----------------------------------------------|
D|---9----11----13------14-----9----------------------------------------------|
A|---9----11-----0------14-----9----------------------------------------------|
E|---0----0------0------0------0----------------------------------------------|

and oh wont you take me there...
    dd-uxudd    dd-uxudd   (repeat with 1st part) Tenderoni you've got to be...
e|-----5-----------9----------------------------------------------------------|
B|-----0-----------0----------------------------------------------------------|
G|-----6-----------9----------------------------------------------------------|
D|-----6-----------9----------------------------------------------------------|
A|-----0-----------9----------------------------------------------------------|
E|-----0-----------0----------------------------------------------------------|

dont you know now is the perfect time...
       (same strum)     (watch vid)      (same strum)          ddd
e|------5---------4---------9---------5--------4-------10-------9----------|
B|------0---------0---------0---------0--------0--------0-------0----------|
G|------6---------4---------9---------6--------4-------11-------9----------|
D|------6---------4---------9---------6--------4--------0-------9----------|
A|------0---------4---------9---------0--------4-------10-------9----------|
E|------0---------0---------0---------0--------0--------0-------0----------|

i want to love you (repeat until "and ill take you there")
      dd     d     ddd   (muted strum)  dd
e|-----2-----4------5--------------------7----------------------------------|
B|-----0-----0------0--------------------9----------------------------------|
G|-----2-----4------6--------------------9----------------------------------|
D|-----2-----4------6--------------------8----------------------------------|
A|-----0-----0------0--------------------7----------------------------------|
E|-----0-----0------0--------------------7----------------------------------|

and ill take you there...////  Nothing can stop this burnin (go back to first part)
      (watch vid for rhythm)
e|-----5-------4-------9----------------------------------------------------|
B|-----0-------0-------0----------------------------------------------------|
G|-----6-------4-------9----------------------------------------------------|
D|-----6-------4-------9----------------------------------------------------|
A|-----0-------0-------9----------------------------------------------------|
E|-----0-------0-------0----------------------------------------------------|

after "ill take you there" (2x)
      d   d   d   d   (muted strum)  dd   d    d    (muted strum)
e|----4---5---6---7-------------------7---8----9-----------9/12\9b--------|
B|----6---7---8---9-------------------9---10---11-------------------------|
G|----6---7---8---9-------------------9---10---11-------------------------|
D|----0---0---0---0-------------------0---0----0--------------------------|
A|----0---0---0---0-------------------0---0----0--------------------------|
E|----0---0---0---0-------------------0---0----0--------------------------|

Pretty young thangs repeat after me
      dd   d    d  / dd   d   d <--repeat 4x (w/muted strum in between each)
e|----5----4----2----7----8----9------------------------------------------|
B|----0----0----0----9----10---11-----------------------------------------|
G|----6----4----2----9----10---11-----------------------------------------|
D|----6----4----2----0----0----0------------------------------------------|
A|----0----0----0----0----0----0------------------------------------------|
E|----0----0----0----0----0----0------------------------------------------|

thats pretty much it! the rest are chords that have been used already. use Tori's video 
to help with the strum and stuff!

************************************

| /   slide up
| \   slide down
| h   hammer-on
| p   pull-off
| ~   vibrato
| +   harmonic
| x   Mute note
| b   Bend
| pb  Pre-bend
| br  Bend release
| pbr Pre-bend release
| brb Bend release bend
Tap to rate this tab
# A B C D E F G H I J K L M N O P Q R S T U V W X Y Z