Song name
# A B C D E F G H I J K L M N O P Q R S T U V W X Y Z

Tori Kelly - Treasure tab

Song: Treasure
Artist: Tori Kelly
Album: Foreword EP (2013)

CAPO 1
------------------------------------------------------------------------------------------------

[INTRO, VERSE I, CHORUS, VERSE II, CHORUS]

e|-----------------------------|-----------------------------|------------------------------|
B|-----------------------------|-----------------------------|------------------------------|
G|-----------------------------|-----------------------------|------------------------------|
D|---------6----------6--------|---------6----------6--------|--------4----------4----------|
A|-----4--------4-----------4--|-----4--------4-----------4--|----2---------2----------2----|
E|---5---5----5----5-----5-----|---5---5----5----5-----5-----|--3---3-----3----3------3-----|

e|------------------------------|---------------------------------|---------------------------2x|
B|------------------------------|---------------------------------|---------------------------2x|
G|------------------------------|---------------------------------|---------------------------2x|
D|--------4----------4----------|----------11-----------11--------|-------7---------7---------2x|
A|----2---------2----------2----|-----9-----------9-------------9-|---5---------5---------5---2x|
E|--3---3-----3----3------3-----|--10---10-----10---10------10----|-6---6---6----6----6-------2x|

[BRIDGE (I wasn't even looking for you...), CHORUS (strumming)]
e|--x------------------|--x------------------|--x------------------|--x-----------|
B|--5------------------|--3------------------|--10-----------------|--6-----------|
G|--6------------------|--4------------------|--11-----------------|--7-----------|
D|--6------------------|--4------------------|--11-----------------|--7-----------|
A|--x------------------|--x------------------|--x------------------|--x-----------|
E|--5------------------|--3------------------|--10-----------------|--6-----------|

[ENDING]
e|--x--------|--x--------|--x--------|--x--------|
B|--10-------|--5--------|--8--------|--3--------|
G|--11-------|--6--------|--9--------|--4--------|
D|--11-------|--6--------|--9--------|--4--------|
A|--x--------|--x--------|--x--------|--x--------|
E|--10-------|--5--------|--8--------|--3--------|

VERSE I
I was not waiting for your love
Before it was all on this shore
Darling, I never really get
This feeling in my chest

CHORUS
It's a new day to discover
So many things to uncover
Even when the tide is high
Out here it's just you and I
Perfect how we fit together
Being around you is a pleasure
Like the way gold lasts forever
I feel like I found my treasure

VERSE II
When I first fell into those
Deep pools in your eyes
I thought I would be fine
'Cause I never really get
This feeling in my chest

BRIDGE
I wasn't even looking for you
My skies were already blue
Now you're what I hold on to
These eyes are fixed on you
And in love we're meant to play
I could never turn away now
Tap to rate this tab
# A B C D E F G H I J K L M N O P Q R S T U V W X Y Z