Song name
# A B C D E F G H I J K L M N O P Q R S T U V W X Y Z

Tornadoes - Bustin Surfboards tab

so here's what i got of the song

        "bustin' surfboards" by The Tornadoes
|-----------------------------------------|
|------------2-2~~~~~~~--------2~~~~~~~~--|
|------------2-2~~~~~~~--------2~~~~~~~~--|
|------------2-2~~~~~~~--------2~~~~~~~~--|
|------------0-0~~~~~~~--------0~~~~~~~~--|
|------0-2-4------------0-2-4-------------|

|----------------------------------------|
|------------3-3~~~~~~~-------2-2~~~~~~--|
|------------2-2~~~~~~~-------2-2~~~~~~--|
|------------0-0~~~~~~~-------2-2~~~~~~--|
|-----0-2-4-------------------0-0~~~~~~--|
|-----------------------0-2-4------------|

    E.................D................A
|---12-11-12--11-12---10-9-10--9-10----5~~~~~--|
|---12-11-12--11-12---10-9-10--9-10----5~~~~~--|
|----------------------------------------------|
|----------------------------------------------|
|----------------------------------------------|
|----------------------------------------------|

and then back into the:
|-----------------------------------------|
|------------2-2~~~~~~~--------2~~~~~~~~--|
|------------2-2~~~~~~~--------2~~~~~~~~--|
|------------2-2~~~~~~~--------2~~~~~~~~--|
|------------0-0~~~~~~~--------0~~~~~~~~--|
|------0-2-4------------0-2-4-------------|

pretty alright stuff aye? the solo is in the key of A so.

-Bert
Tap to rate this tab
# A B C D E F G H I J K L M N O P Q R S T U V W X Y Z