Song name
# A B C D E F G H I J K L M N O P Q R S T U V W X Y Z

Torture Killer - Forever Dead tab

By Lord Alex Gamez
Comenta en facebook: Lord Alex Gamez
Tunning D, G, C, F, A, D
(x2)  Riff 1 (Intro)

D |--------------------------------------------------------------------------|
A |--------------------------------------------------------------------------|
F |--------------------------------------------------------------------------|
C |--------------------------------------------------------------------------|
G |---3---6---3---6---3---5---2----------------------------------------------|
D |---1---4---1---4---1---3---0----0-0-0-0-0-0-0-0-0-0-0-0-0-0-0-0-0-0-0-0---|
P.M                                . . . . . . . . . . . . . . . . . . . .
D |------------------------------------------------------------------------|
A |------------------------------------------------------------------------|
F |------------------------------------------------------------------------|
C |---3---6---3---6---3---5------------------------------------------------|
G |---1---4---1---4---1---3---2--------------------------------------------|
D |---1---4---1---4---1---3---0----0-0-0-0-0-0-0-0-0-0-0-0-0-0-0-0-0-0-----|
P.M                                . . . . . . . . . . . . . . . . . .

D |---------------------------|
A |---------------------------|
F |---------------------------|
C |---------------------------|
G |---3---6---3---6---3---5---|
D |---1---4---1---4---1---3---|

Riff 2 (x4)

D |-------------------------------------------------------------------------|
A |-------------------------------------------------------------------------|
F |-------------------------------------------------------------------------|
C |-------------------------------------------6/3--5/6----------------------|
G |---3--------2---------------3--------2-----4/1--5/6---------2------------|
D |---1--0--0--0--0--0--00000--1--0--0--0--0--4/1--3/4--0--0--0--0-0--0000--|
P.M      .  .     .  .  .....     .  .     .            .  .     . .  ....

D |----------------------------------------------------------|
A |----------------------------------------------------------|
F |----------------------------------------------------------|
C |-------------------------------------------6/3--5/6-------|
G |---3--------2---------------3---------2----4/1--5/6-------|
D |---1--0--0--0--0--0--00000--1--0--0--0--0--4/1--3/4--0--0-|
P.M      .  .     .  .  .....     .  .     .            .  .

D |-------------------------------------|
A |-------------------------------------|
F |-------------------------------------|
C |-------------5/0--5/0------5/0--6/0--|
G |--2----------5/0--3/0------3/0--4/0--|
D |--0--0--0-0--3/0--3/0-0000-3/0--4/0--|
P.M     .  . .           ....
 Riff 3 (x2)

D |----------------------------------------------------------|
A |----------------------------------------------------------|
F |----------------------------------------------------------|
C |---3----3---------3----3/5-6----6/5-3-----3---------------|
G |---3----3/2-------3----3/5-6----6/5-3-----3/2-------------|
D |---1-00-1/0--0000-1-00-1/3-4-00-4/3-1-00--1/0-000000000---|
P.M     ..      ....   ..       ..       ..      .........

"Riff 2 (x2)"
"Riff 3 (x2)"

Riff 4 (x5)

D |---------------------------------------------------------|
A |---------------------------------------------------------|
F |---------------------------------------------------------|
C |-----------------------------------------6--5------------|
G |--------------------7--------------------4--3------------|
D |--00000000-66666666-5--00000000-11111111-4--3--44444444--|

Riff 5 (x9)

D |------------------------------------------|
A |------------------------------------------|
F |------------------------------------------|
C |---------------3/2---------5/6-3/5--------|
G |---3/2---------1/2---------3/4-1/3--------|
D |---1/0-0-0-0-0-1/0-0-0-0-0-3/4-1/3--------|
P.M       . . . .     . . . .

Riff 2 (x2)
Riff 3 (x2)
Riff 5 (x9)

Riff 6 (End)
Guitar 1
D |--------------------------------|
A |--------------------------------|
F |--------------------------------|
C |----7"--------2"-------5"-------|
G |----7"--------2"-------5"-------|
D |----5"--------0"-------3"-------|

Guitar 2

D |---------------3333-|----------------3030--|
A |-5555-0000-1111-----|--5050-1010-3030------|
F |--------------------|----------------------|
C |--------------------|----------------------|
G |--------------------|----------------------|
D |--------------------|----------------------|
Tap to rate this tab
 
# A B C D E F G H I J K L M N O P Q R S T U V W X Y Z