Tose Proeski - Out Of Control tab

Intro

Out of Control - Tose Proeski



----------------------------------------------------------|
-9/10---9--------------7-----------------------------7----|
-8/9----8----9----7----6----9----6/7---6--------9----6----|
-------------9----7---------9----6/7---6----9---9---------|
--------------------------------------------9-------------|
----------------------------------------------------------|




----------------------------------------------------------|
-9/10---9--------------7-----------------------------7----|
-8/9----8----9----7----6----9----6/7---6--------9----6----|
-------------9----7---------9----6/7---6----9---9---------|
--------------------------------------------9-------------|
----------------------------------------------------------|
Tap to rate this tab
 
# A B C D E F G H I J K L M N O P Q R S T U V W X Y Z