Song name
# A B C D E F G H I J K L M N O P Q R S T U V W X Y Z

Tose Proeski - Slusas Li tab

-------------------------------------------------------------------------------
                             Slusas li - Tose Proeski (solo)
-------------------------------------------------------------------------------
Tabbed by: imperatormk
E-mail: windows_ntuser@hotmail.com

Tuning: Standard tuning

Tabs:

 e|--------------------------|--------------------------|
 B|--------------------------|--------------------------|
 G|--7--7--7--7--7--7--6--6--|--9--9--9--9--9--9--7--7--|
 D|--------------------------|--------------------------|
 A|--------------------------|--------------------------|
 E|--------------------------|--------------------------|

 e|-------------------------------------|-----------------------|
 B|-------------------------------------|-----------------------|
 G|--10--10--10--10--10--10/12--12--12--|--7--7--7--7--7/9--5---|
 D|-------------------------------------|-----------------------|
 A|-------------------------------------|-----------------------|
 E|-------------------------------------|-----------------------|

 e|--10--10--10--8--6--8--| 

(this little part goes between the two others after the first chorus only!)

 e|--------------------------|---------------------------|
 B|--------------------------|---------------------------|
 G|--7--7--7--7--7--7--6--6--|--9--9--9--9--10--9--7--7--|
 D|--------------------------|---------------------------|
 A|--------------------------|---------------------------|
 E|--------------------------|---------------------------|

 e|-------------------------------------|----------------------|
 B|-------------------------------------|----------------------|
 G|--10--10--10--10--10--10/12--12--12--|--7--7--7--7--7/9--5--|
 D|-------------------------------------|----------------------|
 A|-------------------------------------|----------------------|
 E|-------------------------------------|----------------------|

 This solo repeats three times; at the beginning, after the chorus and at the end of the song. 
 There is also a small part that is hard to be transposed because of the background sound. 
 I'll update again when I transpose it. 
Tap to rate this tab
 
# A B C D E F G H I J K L M N O P Q R S T U V W X Y Z