Song name
# A B C D E F G H I J K L M N O P Q R S T U V W X Y Z

Total Chaos - Dui tab

-------------------------------------------------------------------------------
			     D.U.I. - Total Chaos
-------------------------------------------------------------------------------
Tabbed by: thehorrormones
Email: factless_society@hotmail.com

Tuning: standard

the first part is in all acoustic so basically you can play chords or power chords... either way its just 

C, G, A, F   the whole way through the acoustic part and end on G

the rest of the verse is the same in power chords like this...

                                                                         x2
e|-------------------------------------------------------------------------|
B|-------------------------------------------------------------------------|
G|--55555------------------------------------------------------------------|
D|--55555---55555---77777---33333------------------------------------------|
A|--33333---55555---77777---33333------------------------------------------|
E|----------33333---55555---11111------------------------------------------|
                                                                         x2
e|-------------------------------------------------------------------------|
B|-------------------------------------------------------------------------|
G|--55555------------------------------------------------------------------|
D|--55555---55555---77777---33333------------------------------------------|
A|--33333---55555---77777---33333------------------------------------------|
E|----------33333---55555---11111------------------------------------------|
            xxxxx   xxxxx


chorus

e|-------------------------------------------------------------------------|
B|-------------------------------------------------------------------------|
G|--55555------------------------------------5-----------------------------|
D|--55555---5--------55555---77777---33333---5-------55555--77777--33333---|
A|--33333---5--------55555---77777---33333---3-------55555--77777--33333---|
E|----------3--------33333---55555---11111-----------33333--55555--11111---|
 
                                                                         x2
e|-------------------------------------------------------------------------|
B|-------------------------------------------------------------------------|
G|--55555------------------------------------------------------------------|
D|--55555---55555---77777---33333------------------------------------------|
A|--33333---55555---77777---33333------------------------------------------|
E|----------33333---55555---11111------------------------------------------|
            xxxxx   xxxxx

then this is the part over top of the chorus

e|-----------------------------------12---12---12---12---12---12---12---12-|
B|---5---5---5---5---5---5---5---5----13---13---13---13---13---13---13---13|
G|-----5---5---5---5---5---5---5---5---------------------------------------|
D|-------------------------------------------------------------------------|
A|-------------------------------------------------------------------------|
E|-------------------------------------------------------------------------|
                    x3                           x3  
e|---------------------------------8---------------------------------------|
B|------------------------------------8--11--6--8--------------------------|
G|---5--------------------5------------------------------------------------|
D|-------5---7---3-5-------------------------------------------------------|
A|-------------------------------------------------------------------------|
E|-------------------------------------------------------------------------|


thats about it... any questions email me..  im liam


| /  slide up
| \  slide down
| h  hammer-on
| p  pull-off
| ~  vibrato
| +  harmonic
| x  Mute note
===============================================================================
Tap to rate this tab
# A B C D E F G H I J K L M N O P Q R S T U V W X Y Z