Guitaretab - guitar tabs
Song name
# A B C D E F G H I J K L M N O P Q R S T U V W X Y Z

Toto - Hold The Line tab

Whats up everyone I'm new to the site and i said to my self let me sign up and put in 
of the songs that i can play so i put this up hope you guys like and have fun with it my 
guitar name is Crazydude323 aka Chris have fun peeps.

Tuning:
(E,A,D,G,B,E)

Intro
|--------------------------------|x2|--------------------------------|
|--------------------------------|  |--------------------------------|
|--------------------------------|  |--------------------------------|
|--------11----6-7-7--9----------|  |-----2--------------------------|
|--------9-----4-5-5--7----------|  |-------4-3-2--------------------|
|--------------------------------|  |--------------------------------|

Verse
|--------------------------------|x2|--------------------------------|
|--------------------------------|  |--------------------------------|
|--------------------------------|  |--------------------------------|
|----------2-4---2-4-------------|  |--------------------------------|
|--2-3-4-4-----4------4-3-2------|  |-----2-3-4-3-4-5-4-5-7----------|
|--------------------------------|  |--------------------------------|

|--------------------------------|
|--------------------------------|
|--------------------------------|
|--------------------------------|
|-2-3-4-3-4-5-4-5-7--7-7-7-------|
|--------------------------------|

Chorus
|--------------------------------|x2|--------------------------------|
|--------------------------------|  |--------------------------------|
|--------------------------------|  |--------------------------------|
|--------11----6-7-7--9----------|  |-----2--------------------------|
|--------9-----4-5-5--7----------|  |-------4-3-2--------------------|
|--------------------------------|  |--------------------------------|

[ Tab from: http://www.guitaretab.com/t/toto/19593.html ]
Verse
|--------------------------------|x2|--------------------------------|
|--------------------------------|  |--------------------------------|
|--------------------------------|  |--------------------------------|
|----------2-4---2-4-------------|  |--------------------------------|
|--2-3-4-4-----4------4-3-2------|  |-----2-3-4-3-4-5-4-5-7----------|
|--------------------------------|  |--------------------------------|

|--------------------------------|
|--------------------------------|
|--------------------------------|
|--------------------------------|
|-2-3-4-3-4-5-4-5-7--7-7-7-------|
|--------------------------------|

Chorus
|--------------------------------|x4|--------------------------------|
|--------------------------------|  |--------------------------------|
|--------------------------------|  |--------------------------------|
|--------11----6-7-7--9----------|  |-----2--------------------------|
|--------9-----4-5-5--7----------|  |-------4-3-2--------------------|
|--------------------------------|  |--------------------------------|

Verse
|--------------------------------|x2|--------------------------------|
|--------------------------------|  |--------------------------------|
|--------------------------------|  |--------------------------------|
|----------2-4---2-4-------------|  |--------------------------------|
|--2-3-4-4-----4------4-3-2------|  |-----2-3-4-3-4-5-4-5-7----------|
|--------------------------------|  |--------------------------------|

|--------------------------------|
|--------------------------------|
|--------------------------------|
|--------------------------------|
|-2-3-4-3-4-5-4-5-7--7-7-7-------|
|--------------------------------|

Chorus
|--------------------------------|x2
|--------------------------------|
|--------------------------------|
|--------11----6-7-7--9----------|
|--------9-----4-5-5--7----------|
|--------------------------------|
Related for Hold The Line tab
×
Best way to learn
"Hold The Line"