Song name
# A B C D E F G H I J K L M N O P Q R S T U V W X Y Z

Toughassmotherfucker - Death tab

-----------------------------------------------------------------
DEATH - Toughassmotherfucker
-----------------------------------------------------------------
Tabbed by: THIS IS AN OFFICIAL TAMF TAB
Email: TAMFmusic@gmail.com

Tuning: DROP D



Acoustic Intro

e|------------------------------------------------------|
B|------------------------------------------------------|
G|---5h7------5h7------5h7-7p5------------------/2------|
D|-------6--------5-------------8p7p5-----------/2------|
A|-5--------5--------5-----------------8-7-5~~~~/0------|
D|------------------------------------------------------|



Intro

Guitar 1
e|--------------------|------|-----------------|-------------------|  *Repeat four times
B|--------------------|------|-----------------|-------------------|
G|----------5/7-------|------|----------5/7----|-------------------|
D|----------5/7---6---|-(6)--|----------5/7--6-|-(6)---------------|
A|----------3/5---5---|-(5)--|----------3/5--5-|-(5)---------------|
D|-000-000--------6---|-(6)--|-000-000-------6-|-(6)--555-333------|
							
Guitar 2 (played on the 3rd and 4th time)
e|--------------------|------|-----------------|--------------------|
B|--------------------|------|-----------------|--------------------|
G|----------5h7-------|------|----------5h7----|--------------------|
D|----------------6---|-(6)--|---------------6-|-(6)--555-----------|
A|-555-555------------|------|-555-555---------|----------888-------|
E|--------------------|------|-----------------|--------------------|



Verse

e|-----------------|----------------------|  *Repeat 4 times  
B|-----------------|----------------------|
G|-----------------|----------------------|
D|-----------------|----------------------|
A|-----------------|----------------------|
D|-000-000-111-111-|-222-222-333-333------|
  "DEATH               
   IS A NATURAL THING"



Pre-chorus

e|------------------|--------------------|  *Repeat 4 times
B|------------------|--------------------|  
G|---------5/7------|-5/7----------------|
D|---------5/7------|-5/7----------------|
A|---------3/5------|-3/5----------------|
E|-000-000-----000--|-----000-111-222----|



Chorus

e|-----------------|-------------------|  *Repeat three times
B|-----------------|-------------------|
G|----------5/7----|-------------------|
D|----------5/7--6-|-(6)---------------|
A|----------3/5--5-|-(5)---------------|
D|-000-000-------6-|-(6)--555-333------|
  "It's a matter of life.."

e|-----------------|-----------<12>----|  
B|-----------------|-----------<12>----|
G|----------5/7----|-----------<12>----|
D|----------5/7--6-|-------------------|
A|----------3/5--5-|-------------------|
D|-000-000-------6-|-------------------|
                           "And DEATH"
                           *With Bar

Repeat Intro to chorus
then repeat intro again but go to presolo







Presolo

Guitar 1
e|------------------------------|------------------|  *Repeat 8 times
B|------------------------------|------------------|
G|------------------------------|------------------|
D|------------------------------|------------------|
A|---------0h5h8---------0h5h8--|------------------|
D|--0h5h8---------0h5h8---------|-000-000-000-000--|

Guitar 2 (Play on 4th - 8th time)
e|--------------------------------------|------------------|  *On 8th time, replace
B|--------------------------------------|------------------|   last measure with
G|--------------------------------------|------------------|   pick scrape
D|--------------------------------------|------------------|
A|------------0h17h20----------0h17h20--|------------------|
D|--0h17h20-----------0h17h20-----------|-000-000-000-000--|


Guitar Solo (Guitar 1 plays main riff 8 times)

Guitar 2 (YOU HAVE TO BE A TAMF TO NAIL THIS FUCKING SHIT!!!)
e|-------|-------|-10----|-13----------|
B|-10----|-11----|(b13)--|(b16)--------|
G|(b12)--|(b13)--|-------|-------------|
D|-------|-------|-------|-------------|
A|-------|-------|-------|-------------|
D|-------|-------|-------|-------------|

e|-------------------------|------------------------|
B|-------------------------|------------------------|
G|-------------------------|------------------------|
D|-12-12-14-12----12-------|-----------10-12--12----|
A|-------------14----14-12-|---10-12----------------|
D|-------------------------|------------------------|

e|---------------------|----------------------------|
B|---------------------|----------------------------|
G|-9-10-12*-10*-9*-10*-|-12*-10*-12*-10*-9----------|
D|---------------------|--------------------10------|
A|---------------------|----------------------------|
D|---------------------|----------------------------|

e|-----------------------|--------------|
B|-----------------------|--------------|
G|-------------10-10-10--|-12-10-10-9---|
D|-12-12-12-10-----------|--------------|
A|-----------------------|--------------|
D|-----------------------|--------------|

e|--5-5-5*6-6*8--|--8*10-12--------|
B|---------------|-----------------|
G|---------------|-----------------|
D|---------------|-----------------|
A|---------------|-----------------|
D|---------------|-----------------|
       *trills
e|--10*-12*-13*-12*-15*-13*-|-12-13p12-10--|
B|--------------------------|--------------|
G|--------------------------|--------------|
D|--------------------------|--------------|
A|--------------------------|--------------|
D|--------------------------|--------------|
      *tremelo pick
e|-13p12p10-15p13p12-17p15p13-20p19p17--|---20b-(up to D)---------|
B|--------------------------------------|-------------------------|
G|--------------------------------------|-------------------------|
D|--------------------------------------|-------------------------|
A|--------------------------------------|-------------------------|
D|--------------------------------------|-------------------------|


Play riff two times
play pre solo 2 times with guitar 2 on 3rd and 4th time
repeat verse



Outro

e|-----------------|-----------------|-----------------|---------------------------|
B|-----------------|-----------------|-----------------|---------------------------|
G|-----------------|-----------------|-----------------|---------------------------|
D|-3-3-3-3-3-3-3-3-|-5-5-5-5-5-5-5-5-|-8-8-8-8-8-8-8-8-|-10-10-10-10-10-10-10-10---|
A|-3-3-3-3-3-3-3-3-|-5-5-5-5-5-5-5-5-|-8-8-8-8-8-8-8-8-|-10-10-10-10-10-10-10-10---|
D|-3-3-3-3-3-3-3-3-|-5-5-5-5-5-5-5-5-|-8-8-8-8-8-8-8-8-|-10-10-10-10-10-10-10-10---|

e|-----------------|-----------------|-------------------------|-------------------------|
B|-----------------|-----------------|-------------------------|-------------------------|
G|-----------------|-----------------|-------------------------|-------------------------|
D|-7-7-7-7-7-7-7-7-|-8-8-8-8-8-8-8-8-|-10-10-10-10-10-10-10-10-|-12-12-12-12-12-12-12-12-|
A|-7-7-7-7-7-7-7-7-|-8-8-8-8-8-8-8-8-|-10-10-10-10-10-10-10-10-|-12-12-12-12-12-12-12-12-|
D|-7-7-7-7-7-7-7-7-|-8-8-8-8-8-8-8-8-|-10-10-10-10-10-10-10-10-|-12-12-12-12-12-12-12-12-|

e|------------------|------------------|
B|------------------|------------------|
G|------------------|------------------|
D|-12-10-8--12-10-8-|-12-10-8--12-10-8-|
A|-12-10-8--12-10-8-|-12-10-8----------|
D|-12-10-8--12-10-8-|-12-10-8----------|

e|--<12>---|  *Clean, with bar
B|--<12>---|
G|--<12>---|
D|---------|
A|---------|
D|---------|

COPYRIGHT TAMF TABS 2009


| /  slide up
| \  slide down
| h  hammer-on
| p  pull-off
| ~  vibrato
| <>  harmonic
| x  Mute note
| *  tremelo or trill, marked in the tab
Tap to rate this tab
 
# A B C D E F G H I J K L M N O P Q R S T U V W X Y Z