Song name
# A B C D E F G H I J K L M N O P Q R S T U V W X Y Z

Tracer - Too Much tab

Tuning: C# G# C# F# A# D#

Intro:

D#|--------------------------------|--------------------------------|
A#|--------------------------------|--------------------------------|
F#|--------------------------------|--------------------------------|
C#|-7-7----------------------------|-7-7----------------------------|
G#|-5-5-5-5-5-5-5-5-5-5-5-5-5-5-5-5|-5-5-5-5-5-5-5-5-5-5-5-5-5-5-5-5|
C#|--------------------------------|--------------------------------| X3

D#|--------------------------------|--------------------------------|
A#|--------------------------------|--------------------------------|
F#|--------------------------------|--------------------------------|
C#|-7-7----------------------------|-7-7-----7-7---7----------------|
G#|-5-5-5-5-5-5-5-5-5-5-5-5-5-5-5-5|-5-5-5-5-5-5-5-5---------5------|
C#|--------------------------------|-------------------0-3-5---5-3-5|

Verse:

D#|--------------------------------|--------------------------------|
A#|--------------------------------|--------------------------------|
F#|--------------------------------|--------------------------------|
C#|--------------------------------|--------------------------------|
G#|-0-0-----5-----5---------3------|-0-0-----5-----5---------3------|
C#|-0-0-3-5---3-5-----0-3-5---5-3-5|-0-0-3-5---3-5-----0-3-5---3-5-3| X12

Pre-Chorus 1:

D#|--------------------------------|--------------------------------|
A#|--------------------------------|--------------------------------|
F#|--------------------------------|--------------------------------|
C#|--------------------------------|--------------------------------|
G#|-3-3-3-3-3-3-3-3-3-3-3-3-3-3-3-3|-0-0-----5-----5---------3------|
C#|-3-3-3-3-3-3-3-3-3-3-3-3-3-3-3-3|-0-0-3-5---3-5-----0-3-5---3-5-3|

Pre Chorus 2:

D#|--------------------------------|--------------------------------|
A#|--------------------------------|--------------------------------|
F#|--------------------------------|--------------------------------|
C#|--------------------------------|-------------------5-5---5-5---7|
G#|-3-3-3-3-3-3-3-3-3-3-3-3-3-3-3-3|-5-5-5-5-5-5-5-5---3-3---3-3---5|
C#|-3-3-3-3-3-3-3-3-3-3-3-3-3-3-3-3|-5-5-5-5-5-5-5-5----------------|

Chorus:

D#|--------------------------------|--------------------------------|
A#|--------------------------------|--------------------------------|
F#|--------------------------------|--------------------------------|
C#|-7---7-7-7-5-7-5-7---7-7-7-5-7-5|-7---7-7-7-5-7-5--------101010-5|
G#|-5---5-5-5-5-5-5-5---5-5-5-5-5-5|-5---5-5-5-5-5-5-8--8-8--8-8-8-3|
C#|--------------------------------|-----------------8--8-8---------| X4

Bridge:

Same as intro.

Solo:

Improvise around these notes:
D#|-------------------------10-13--|
A#|-------------------10-13--------|
F#|-------------10-12--------------|
C#|-------10-12--------------------|
G#|-10-12--------------------------|
C#|--------------------------------|

Rhythm is same as the verse.

Structure:

Intro
Verse
Pre-Chorus 1
Verse
Pre-Chorus 1
Pre-Chorus 2
Chorus
Verse
Pre-Chorus 1
Pre-Chorus 2
Chorus
Bridge
Solo
Pre-Chorus 1
Pre-Chorus 2
Chorus
Verse

Tracer Website: http://www.tracer-band.com/ 
Tap to rate this tab
# A B C D E F G H I J K L M N O P Q R S T U V W X Y Z