Song name
# A B C D E F G H I J K L M N O P Q R S T U V W X Y Z

Tracy Chapman - All That You Have tab

From: ihateuw@u.washington.edu (David Z. Wong)

All That You Have Is Your Soul
Tracy Chapman

|------------------|------------------|------------------|------------------|
|--2-------2-------|--2-h-3---3---2---|--0-------0-------|--0-h-2-----------|
|--------2-----2---|-----------(2)----|--------1-----1---|----------1-------|
|----------------2-|------------------|----------------2-|--------------2---|
|--0---------------|--0---------------|------------------|------------------|
|------------------|------------------|--0---------------|--0---------------|
   1 . 2 . 3 . 4 .    1 . 2 . 3 . 4 .    1 . 2 . 3 . 4 .    1 . 2 . 3 . 4 .
 


|------------------|--2-------2-------|--2-h-3---3---2---|--0-------0-------|
|--0-------0-------|--------3-----3---|-----------(2)----|--------3-----3---|
|--------1-----1---|----------------2-|------------------|----------------2-|
|----------------2-|--0---------------|--0---------------|--0---------------|
|------------------|------------------|------------------|------------------|
|--0---------------|------------------|------------------|------------------|
   1 . 2 . 3 . 4 .    1 . 2 . 3 . 4 .    1 . 2 . 3 . 4 .    1 . 2 . 3 . 4 .
 


|--0-h-2-----------|--0-------0-------|------------------|------------------|
|----------3-------|--------3-----3---|--2-------2h3-----|--0-------0h2-----|o
|--------------2---|----------------2-|--------2-----2---|--------1-----1---|
|--0---------------|--0---------------|----------------2-|----------------2-|
|------------------|------------------|--0-------0-------|------------------|o
|------------------|------------------|------------------|--0-------0-------|
   1 . 2 . 3 . 4 .    1 . 2 . 3 . 4 .    1 . 2 . 3 . 4 .    1 . 2 . 3 . 4 .

	
	Well, somebody a few days back requested "All That You Have Is Your 
Soul" so I've tabbed out the intro.  I've heard that it's actually played with
a capo at the fifth fret, but I've never tried playing it up there.  After the
intro, the chords are still picked pretty much the same, but the sequence
occasionally changes.  Finally, don't use the tab for timing.  I'm still 
not terribly adept at translating time into intervals of dashes.:)

					-Dave

--
 oooooooooooooooooooooooooooooooooooooooooooooooooooooooooooooooooooooooooooooo
 o                                               o                            o
 o "Saqi bajalwa dushman-e-imaan-o-aagahi,       o David V. Wong              o
 o  Mutrib banaghma, rahzan-e-tamkin-o-hosh hai. o ihateuw@u.washington.edu   o
 o		-Mirza Ghalib (1797-1869)        o 			      o
 oooooooooooooooooooooooooooooooooooooooooooooooooooooooooooooooooooooooooooooo

Tap to rate this tab
# A B C D E F G H I J K L M N O P Q R S T U V W X Y Z