Song name
# A B C D E F G H I J K L M N O P Q R S T U V W X Y Z

Tracy Chapman - This Time tab

Capo 1st fret
                                                                             
E||--------------------------|-------------------|
B||--------------------------|--3----------------|
G||---------------------0----|-------------------|
D||----------------4---------|-------------------|
A||--------0h3p-2------------|--3----------------|
E||--0h2h3-------------------|-------------------|


--------------------------|-------------------|
--------------------------|--5----------------|
---------------------0----|-------------------|
----------------4---------|-------------------|
--------0h3p-2------------|--5----------------|
--0h2h3-------------------|-------------------|


                      verse starts on return      Emadd9     Dsus2,add5+                   
|---------------------------|-------------------------|
|---------------------------|--7---8---7--5---5-------|
|*---------------------0----|--------------------0----|
|*----------------4---------|----------------------0--|
|---------0h3p-2------------|--7----------5-----------|
|---0h2h3-------------------|-------------------------|


  Cadd9                                                     
----------------------------|-------------------------|
--3----3-------3----3-------|--7---8---7--5---5-------|
-----0----0-------0----0----|--------------------0----|
------------2------------2--|----------------------0--|
--3----3-------3----3-------|--7----------5-----------|
----------------------------|-------------------------|


                                                      
----------------------------|------7----------5------|
--3----3-------3----3-------|--7------8---5------5---|
-----0----0-------0----0----|------------------------|
------------2------------2--|------------------------|
--3----3-------3----3-------|--7----------5----------|
----------------------------|------------------------|


                                                      
----------------------------|------7----------5------|
--3----3-------3----3-------|--7------8---5------5---|
-----0----0-------0----0----|------------------------|
------------2------------2--|------------------------|
--3----3-------3----3-------|--7----------5----------|
----------------------------|------------------------|


                                                                
----------------------------|-----------------------------||
--3----3-------3----3-------|-----------------------------||
-----0----0-------0----0----|----------------------------*||
------------2------------2--|-----2----2----2----2----2--*||
--3----3-------3----3-------|--3----3----3----3----3------||
----------------------------|-----------------------------||



Emadd9
This time
Dsus2,add5+	 Cadd9
I won't show I'm vulnerable
This time
I won't give in first
This time
I will hold out with my love
This time
I will not be hurt

	  Cmaj7
I'm gonna love myself
More than anyone else
I'm gonna treat me right
	  D
I'm gonna make you say
That you love me first
					      Cmaj7
And you'll be the one with the most to lose tonight
     D
This time

     Em
This time
		D	     C
I won't let my emotions rule my life
This time
I'm gonna keep my heart locked safe inside
This time
I'm gonna be my own best friend
This time
I'm gonna be the one

Emadd9
To win
Dsus2,add5+
Your love
Cadd9
Your affection
D
To hide
C
My fear
B7
Of rejection
Emadd9...
This time

E||--------------------------|-------------------|
B||--------------------------|--3----------------|
G||---------------------0----|-------------------|
D||----------------4---------|-------------------|
A||--------0h3p-2------------|--3----------------|
E||--0h2h3-------------------|-------------------|


--------------------------|-------------------|
--------------------------|--5----------------|
---------------------0----|-------------------|
----------------4---------|-------------------|
--------0h3p-2------------|--5----------------|
--0h2h3-------------------|-------------------|
                                                                      
---------------------------|--12----------------||
---------------------------|--12----------------||
----------------------0----|--12----------------||
-----------------4---------|--------------------||
---------0h3p-2------------|--------------------||
---0h2h3-------------------|--------------------||
Tap to rate this tab
# A B C D E F G H I J K L M N O P Q R S T U V W X Y Z