Song name
# A B C D E F G H I J K L M N O P Q R S T U V W X Y Z

Tracy Chapman - For You tab

Help us improve GuitareTab! Take a short survey!
TRACY CHAPMAN

FOR YOU

(Tracy Chapman)


Thought the complete tabs were missing on this page, 
so here they are... I think they go to the original song...
Unfortunately the text doesn't match the tabs, 
so please listen to the song a few times and it'll work... 
Have fun, peter. 



: = "repeat"

4/4 time

INTRO: (2x)

                                                          
e|:----------------|---0-------------|-----------------|----------------:|
B|:-3---0-0----0---|-3---0-2-----2---|-3---0-1-----1---|-1---0-3-----3--:|
G|:---0------2---0-|-----------2---2-|---2-------0---0-|---0-------2---0:|
D|:----------------|-----------------|-----------------|----------------:|
A|:-2-----0--------|-2-----0---------|-0-----3---------|-3-----0--------:|
E|:----------------|-----------------|-----------------|----------------:|
                                                     (2nd time) There're  


VERSE


|-----------------|---0-----------------|----------------|----------------|
|-3---0-0-----0---|-3---0-2-------2-----|-3---0-1----1---|-1---0-3----3---|
|---0-------2---0-|-------------2---2---|---2------0---0-|---0------2---0-|
|-----------------|---------------------|----------------|----------------|
|-2-----0---------|-2-----0-------------|-0-----3--------|-3-----0--------|
|-----------------|---------------------|----------------|----------------|
...no words to say_no words to convey this feeling inside_I have for you_


|------------------|------------------|
|-3---0-0------0---|-1---0-3------3---|
|---0--------2---0-|---0--------2---0-|
|------------------|------------------|
|-2-----0----------|-3-----0----------|
|------------------|------------------|
 Deep in my heart,


                                     let ring................
|:---0------------------|-----------------------------|----:|
|:-3---0-2---------2----|-3------0-1------------------|----:|
|:---------------2---2--|-----------------------------|----:|
|:----------------------|-----------------------------|----:|
|:-2-----0--------------|-0--------3------------------|----:|
|:----------------------|-----------------------------|----:|
 1.safe from the guards of intelect and reason,
 2.leaving me at loss for  words to express my feelings


|:------------------|------------------:|
|:-3---0-0------0---|-1---0-3------3---:|
|:---0--------2---0-|---0--------2---0-:|
|:------------------|------------------:|
|:-2-----0----------|-3-----0----------:|
|:------------------|------------------:|
  Deep in my heart,



CHORUS (just play the chords)


Em                     Em            C                    C
    Look at me losing control_______,    thinking I had a hold_______.

Am7                        Am7
    But with feelings this strong,

C                        C
    I'm no longer the master of my_______...



|------------------|---0-------------|-----------------|-----------------|
|-3---0-0------0---|-3---0-2-----2---|-3---0-1-----1---|-1---0-3-----3---|
|---0--------2---0-|-----------2---2-|---2-------0---0-|---0-------2---0-|
|------------------|-----------------|-----------------|-----------------|
|-2-----0----------|-2-----0---------|-0-----3---------|-3-----0---------|
|------------------|-----------------|-----------------|-----------------|
...emotions                                                      


(Repeat the verse and chorus)

VERSE


|-----------------|---0----------------|----------------|----------------|
|-3---0-0-----0---|-3---0-2------2-----|-3---0-1----1---|-1---0-3----3---|
|---0-------2---0-|------------2---2---|---2------0---0-|---0------2---0-|
|-----------------|--------------------|----------------|----------------|
|-2-----0---------|-2-----0------------|-0-----3--------|-3-----0--------|
|-----------------|--------------------|----------------|----------------|
no words to say_ no words to convey this feeling inside_I have for you_


|------------------|------------------|
|-3---0-0------0---|-1---0-3------3---|
|---0--------2---0-|---0--------2---0-|
|------------------|------------------|
|-2-----0----------|-3-----0----------|
|------------------|------------------|
 Deep in my heart,


                                     let ring................
|:---0------------------|-----------------------------|----:|
|:-3---0-2---------2----|-3------0-1------------------|----:|
|:---------------2---2--|-----------------------------|----:|
|:----------------------|-----------------------------|----:|
|:-2-----0--------------|-0--------3------------------|----:|
|:----------------------|-----------------------------|----:|
 1.safe from the guards of intelect and reason,
 2.leaving me at loss for  words to express my feelings


|:------------------|------------------:|
|:-3---0-0------0---|-1---0-3------3---:|
|:---0--------2---0-|---0--------2---0-:|
|:------------------|------------------:|
|:-2-----0----------|-3-----0----------:|
|:------------------|------------------:|
  Deep in my heart,



CHORUS (just play the chords)


Em                     Em            C                    C
    Look at me losing control_______,    thinking I had a hold_______.

Am7                        Am7
    But with feelings this strong,

C                        C
    I'm no longer the master of my_______...



|------------------|---0-------------|-----------------|-----------------|
|-3---0-0------0---|-3---0-2-----2---|-3---0-1-----1---|-1---0-3-----3---|
|---0--------2---0-|-----------2---2-|---2-------0---0-|---0-------2---0-|
|------------------|-----------------|-----------------|-----------------|
|-2-----0----------|-2-----0---------|-0-----3---------|-3-----0---------|
|------------------|-----------------|-----------------|-----------------|
...emotions                                                      There're


|-----------------|---0----------------|----------------|----------------|
|-3---0-0-----0---|-3---0-2------2-----|-3---0-1----1---|-1---0-3----3---|
|---0-------2---0-|------------2---2---|---2------0---0-|---0------2---0-|
|-----------------|--------------------|----------------|----------------|
|-2-----0---------|-2-----0------------|-0-----3--------|-3-----0--------|
|-----------------|--------------------|----------------|----------------|
no words to say_ no words to convey this feeling inside_I have for you_



OUTRO


|:----------------|---0-----------|---------------|---------------:|-----||
|:-3---0-0----0---|-3---0-2---2---|-3---0-1---1---|-1---0-3---3---:|-3---||
|:---0------2---0-|---------2---2-|---2-----0---0-|---0-----2---0-:|-0---||
|:----------------|---------------|---------------|---------------:|-----||
|:-2-----0--------|-2-----0-------|-0-----3-------|-3-----0-------:|-1---||
|:----------------|---------------|---------------|---------------:|-----||
                                                      mmmm____     for you.



For any questions please e-mail me: peter_waltl@hotmail.com


Related for For You tab