Song name
# A B C D E F G H I J K L M N O P Q R S T U V W X Y Z

Tragically Hip - Nautical Disaster tab

Tabbed this by ear, pretty sure its correct

Intro/Verse:

 Em         D          G          D
|----------|----------|----------|----------|
|----------|----------|----3-----|----------|
|-----0--0-|---0--2---|-0--------|---2------|
|--2-------|-0--------|----------|-0-----0H2|
|----------|----------|----------|----------|
|0---------|----------|----------|----------|

Variation:

 Em         D          C          D
|----------|----------|----------|----------|
|----------|----------|----1-----|-------3--|
|-----0--0-|---0--2---|-0--------|---2------|
|--2-------|-0--------|----------|-0--------|
|----------|----------|----------|----------|
|0---------|----------|----------|----------|

Solo 1 (In your blood...)

|-------------------------------|
|-------------------------------|
|0--0--0----2--4--5-4-2--0-0----|
|--------4-------------------4/0|
|-------------------------------|
|-------------------------------|

Solo 2 (A love of something..)

|3--3--2-3--3--3--2-3--3~~~3-3--2----|
|---------------------------------5/0|
|------------------------------------|
|------------------------------------|
|------------------------------------|
|------------------------------------|

Solo 3 (And we headed for home...)

|3--3--2-3--3--3-2-3-2---3--3-2-3--3--2-2|
|----------------------3-----------------|
|----------------------------------------|
|----------------------------------------|
|----------------------------------------|
|----------------------------------------|

|3--3--2-3--3--3-2H3H5--3-2--3--3--2H3H5--3-2-3-2-0--|
|---------------------------------------------------3|
|----------------------------------------------------|
|----------------------------------------------------|
|----------------------------------------------------|
|----------------------------------------------------|

Then the dream ends, when the phone rings
|--------0~~~~~~
|--------0~~~~~~
|--------0~~~~~~
|--------2~~~~~~
|--------2~~~~~~
|--------0~~~~~~

Youre doing alright
|------------3~~~~~~~~~~2----2H3-2--0|
|-----------------------------------0|
|-----------------------------------0|
|-----------------------------------2|
|-----------------------------------2|
|-----------------------------------0|
                                    * pick hard close to bridge

As faint a sound, in my memory as those fingernails scratching on my hull
(Solo 2 x2)

Ending solo:

|--------------------3-2---------------------|
|3-3H5-5--5P3-3H5-5-------3H5-5--5P3-3-3--3-3|
|--------------------------------------------|
|--------------------------------------------|
|--------------------------------------------|
|--------------------------------------------|

|-----------------------------------------------|
|-----------------------------------------------|
|5-5-4-4--4--4--4/0-2-4-2-5--4--2--0------------|
|-------------------------------------4P0---0--2|
|-----------------------------------------------|
|-----------------------------------------------|

|------------------------3-2-3-5-3-7-3-7-7b8r7-7|
|3H5-5--5P3-3H5-5--5--5-------------------------|
|-----------------------------------------------|
|-----------------------------------------------|
|-----------------------------------------------|
|-----------------------------------------------|

|7/3-3-5-7-5-7b8.5-7-3----3-3-2-3/0----|
|-----------------------------------3-5|
|--------------------------------------|
|--------------------------------------|
|--------------------------------------|
|--------------------------------------|

|--------------------3-2---------------------3-2|
|3H5-5--3H5-5--3H5-5-----3H5-5--3H5-5--3H5-5----|
|-----------------------------------------------|
|-----------------------------------------------|
|-----------------------------------------------|
|-----------------------------------------------|

|----------------------------------------------------------------|
|3H5-5--3H5-5--3H5-5-3H5-5--3H5-5--5--5--5-----------------------|
|------------------------------------------4/0--2--0--0--0-------|
|-----------------------------------------------------------4-5/0|
|----------------------------------------------------------------|
|----------------------------------------------------------------|

|----------------------------------------------------------------------------|
|5--5--5-5-5--8-7--5-7-8--5--5--5-5-5-8-7-8-10-8-12-12--12h13-10-12-12--8-10-|
|----------------------------------------------------------------------------|
|2--2--2-2-2--5-4--2-4-5--2--2--2-2-2-5-4-5-7--5-----------------------------|
|----------------------------------------------------------------------------|
|----------------------------------------------------------------------------|

Outro:

|0--2H0----7----2--2----2------0--0|
|0----------7----3--3-----3-----0--|
|0-----------7----4--4------2----0-|
|2------------7--------------------|
|2---------------------------------|
|0---------------------------------|
Tap to rate this tab
 
# A B C D E F G H I J K L M N O P Q R S T U V W X Y Z