Song name
# A B C D E F G H I J K L M N O P Q R S T U V W X Y Z

Tragically Hip - The Rules tab

-----------------------------------------------------------------------------        
SONG NAME The Rules - Band Name The Tragically Hip
-----------------------------------------------------------------------------
Tuning: Standard

This is the intro, some parts are repeated throughout the song as well.

INTRO: (0:00-0:37)

e|-9--9------------------------------------9--9------------------------------|
B|-10-10--12-----9--------9h10p9-----------10-10--12-----9------------10-----|
G|-11-11--13-----9---9----9------9---------11-11--13-----9---9---9h11-11-----|
D|--------14-----9h11-----------------------------14-----9h11----------------|
A|---------------------------------------------------------------------------|
E|---------------------------------------------------------------------------|

e|-9--9--------------------------9--9----------------------------------------|
B|-10-10--12---------------------10-10--12-----------------------------------|
G|-11-11--13-----9h11-9----------11-11--13-----9h11-9----9h11-9----9h11-9----|
D|--------14-----9----------------------14-----9---------9---------9---------|
A|---------------------------------------------------------------------------|
E|---------------------------------------------------------------------------|

e|---------------------------------------------------------------------------|
B|---------------------------------------------------------------------------|
G|-9h11-9--------------------------------------------------------------------|
D|-9-------11--/--12-12------------------------------------------------------|
A|---------------------------------------------------------------------------|
E|---------------------------------------------------------------------------|



| /  slide up
| \  slide down
| h  hammer-on
| p  pull-off
| ~  vibrato
| +  harmonic
| x  Mute note
===============================================================================
Tap to rate this tab
# A B C D E F G H I J K L M N O P Q R S T U V W X Y Z