Song name
# A B C D E F G H I J K L M N O P Q R S T U V W X Y Z

Trail Of Dead - Another Morning Stoner tab

This song sounds almost 100% right, if wrong tell me what I should change. My email is 
THIS USES ALTERNATE TUNING!!! CGCGBE!!! Without that it will sound terrible.

Song: Another Morning Stoner
Artist: And You Will Know Us By The Trail Of Dead
Album: Source Tags & Codes

Intro and chorus:

E--------------------------------------------------------------------|
B---3---5---3---7---5---8-7-5-0----8---10---8---12---10---13-12-10-0-|
G-4---4---4---4---0---0----------9---9----9---9----0----0------------|
C-4------------------------------9-----------------------------------|
G-4-------------0----------------9--------------0--------------------|
C-4-------------0----------------9--------------0--------------------|

verse

E----------------------|
B---7-0-7-0---7-0-7-0--|
G-7---------9----------|
C-7---------9----------|
B-7---------9----------|
C-7---------9----------|

verse pt. 2

E-----------------------------------------------------|
B-7---5---3---5-7---5---3---7---5---3---5---3-8-7-5-0-|
G---0---0---0-----0---0---5---0---0---0---0-----------|
C-0-------------------------0-------------------------|
G-0-------------------------0-------------------------|
C-0-------------------------0-------------------------|

Break:

E-----10---7-|
B---8----8---|
G------------|
C------------|
G-0----------|
C-0----------| (repeat 4x)

E-----10---7--|
B---8----8----|
G-------------|
C-------------|
G-------------|
C-9-----------| (repeat 4x)

(repeat above)

E-----10---7-|
B---8----8---|
G------------|
C------------|
G-0----------|
C-0----------| (repeat 4x)

E------7------|
B--5-5---5-8--|
G--5----------|
C--5----------|
G--5----------|
C-------------| (repeat 4x)

E-----3-------|
B---------1---|
G-2-2---2-----|
C-2-----------|
G-2-----------|
C-2-----------| (repeat 4x)
Tap to rate this tab
 
# A B C D E F G H I J K L M N O P Q R S T U V W X Y Z