Song name
# A B C D E F G H I J K L M N O P Q R S T U V W X Y Z

Trans Siberian Orchestra - Christmas Eve Sarajevo tab

e--------------------------------------------------------------------------|
B--------------------------------------------------------------------------|
G--------------------------------------------------------------------------|
D-------------9--9-----7-------------------------------------7----9--------|
A---7---7-----------------10--9---7-------7----9--10-----------------------|
E---------------------------------------10---------------------------------|

e--------------------------------------------------------------------------|
B--------------------------------------------------------------------------|
G--------------------------------------------------------------------------|
D-------------9--9-----7---------------------------------------------------|
A---7---7-----------------10--9---7----------------------------------------|
E---------------------------------------10---------------------------------|

Now play an e minor cord for the background beat

Then go to this
e----12----10---8-----7------12----10---8-----7---------------|
B-------------------------------------------------------------|
G-------------------------------------------------------------|
D-------------------------------------------------------------|
A-------------------------------------------------------------|
E-------------------------------------------------------------|


e-----3--2--3--0---3--2---3---0---3--2----3-----0-----3----2-----3-----0-------|
B------------------------------------------------------------------------------|
G------------------------------------------------------------------------------|
D------------------------------------------------------------------------------|
A---------------------------------------------------------------------------E--|


e----7--5---7-----7--5---7--------7----5-----7------7----5-----7---------------|
B-------------8---------------8------------------8------------------8----------|
G---------------------------------------------------------------------------D--|
A---------------------------------------------------------------------------E--|


e--12------12----12-----10---------------------------------------------------------|
B-------------------------------13----12------12----12------10------10-----10--10--|
G--------------------------------------------------------------------12------------|
D----------------------------------------------------------------------------------|
A----------------------------------------------------------------------------------|
E----------------------------------------------------------------------------------|

-----------------------|
-12---10---------------|
--------------------9--|
-----------------------|
-----------------------|
-----------------------|

e---------------------------------5---7----5------------------------|
B---------------------7--8----------------------8-------------------|
G-------------8--9--------------------------------------------------|        X2
D-----9--11---------------------------------------------------------|
A-------------------------------------------------------------------|
E-------------------------------------------------------------------|


e-------------------------------------------------------------------|
B---------------------7--8------------------------------------------|
G-------------8--9--------------------------------------------------|        X4
D-----9--11---------------------------------------------------------|
A-------------------------------------------------------------------|
E-------------------------------------------------------------------|


e---------/---12---------------------------------------------|
B------------------------------------------------------------|
G------------------------------------------------------------|
D------------------------------------------------------------|
A------------------------------------------------------------|
E------------------------------------------------------------|
Tap to rate this tab
# A B C D E F G H I J K L M N O P Q R S T U V W X Y Z