Song name
# A B C D E F G H I J K L M N O P Q R S T U V W X Y Z

Transit War - Radar tab

|----------------------------------|
|----------------------------------|
|----------------------------------|
|-9-9-9----------------------------|
|--------7-7-7-9-9-9-5-5-5-5-5-5-5-|
|----------------------------------| x3 

|-----------------------------------------------|
|-----------------------------------------------|
|-----------------------------------------------|
|-9-9-9-----------------------------------------|
|--------7-7-7-9-9-9-12-12-12-12-12-12-12-12----|
|--------------------------------------------10-|
Tap to rate this tab
 
# A B C D E F G H I J K L M N O P Q R S T U V W X Y Z