Song name
# A B C D E F G H I J K L M N O P Q R S T U V W X Y Z

Trash Light Vision - My Brain Is Hanging Upside Down tab

----------------------------------------------------------------------------
		My Brain is Hanging Upside Down - Trashlight Vision
                       From the Album Alibas and Ammunition
                                (RAMONES COVER)
----------------------------------------------------------------------------
Tabbed by: Daz
Email: dariuswarr99@hotmail.com

Tuning: Standard

Intro

   G5

E|-------------------------------------------------------------------------|
B|-------------------------------------------------------------------------|
G|-------------------------------------------------------------------------|
D|-------------------------------------------------------------------------|
A|-----5-5-5-5--------5-5-5-5--------5-5-5-5--------5-5-5-5----------------|
E|-3-3-3-3-3-3----3-3-3-3-3-3----3-3-3-3-3-3----3-3-3-3-3-3----------------|

Verse

  F5                     C5               G5

E|-------------------------------------------------------------------------|
B|-------------------------------------------------------------------------|
G|------------------------5------------------------------------------------|
D|-3----------------------5---------------5--------------------------------|
A|-3----------------------3---------------5--------------------------------|
E|-1--------------------------------------3--------------------------------|

Chorus

    A              G5                     F 

E|-------------------------------------------------------------------------|
B|---2---------------------------------------------------------------------|
G|---2---------------0--------------------2--------------------------------|
D|---2---------------0--------------------3--------------------------------|
A|---0------------------------------------3--------------------------------|
E|-------------------3--------------------1--------------------------------|

Bridge

     D                    A                  G

E|---10-10-10-10-10-10-10-10\5-5-5-5-5-5-5-5-------------------------------|
B|---x--x--x--x--x--x--x--x-x-x-x-x-x-x-x-x--8-8-8-8-8-8-8-8---------------|
G|---7--7--7--7--7--7--7--7\2-2-2-2-2-2-2-2--x-x-x-x-x-x-x-x---------------|
D|-------------------------------------------5-5-5-5-5-5-5-5---------------|
A|-------------------------------------------------------------------------|
E|-------------------------------------------------------------------------|


============================================================================
Tap to rate this tab
# A B C D E F G H I J K L M N O P Q R S T U V W X Y Z