Travis Garland - Believe tab

-------------------------------------------------------------------------------
			     Believe - Travis Garland
-------------------------------------------------------------------------------
Tabbed by:Human Thach
Email:rithix27@hotmail.com

Tuning: Standard 

e|-------------------------3-2-----------------------------------------------|
B|---------2-------------------3----------3~-----3~---------3----------------|
G|-------0---0---0-----0----------0----------0------------0---0--------------|
D|-----4-------4-----4------------------0------2-------0--------0------------|
A|-3~--------------5-----5---------------------------2------------2----------|
E|----------------------------------0~---------------------------------------|



************************************

| /   slide up
| \   slide down
| h   hammer-on
| p   pull-off
| ~   ring
| +   harmonic
| x   Mute note
| b   Bend
| pb  Pre-bend
| br  Bend release
| pbr Pre-bend release
| brb Bend release bend

************************************
Tap to rate this tab
 
# A B C D E F G H I J K L M N O P Q R S T U V W X Y Z