Guitaretab - guitar tabs
Song name
# A B C D E F G H I J K L M N O P Q R S T U V W X Y Z

Travis Mccoy - Billionaire chords

Highlighted       Show chord diagrams
okay, so i havent done this in a while, go easy x) im going to tab out and
give you the chords for Billionaire by Travis Mccoy ft. Bruno Mars, LETS GO! :)

Tuning:Standard

the song starts off from "i wanna be a billionaire so fricking bad...."
the chords for that part and the rest of the verses go...

Verse:  A   C#m F#m  E repeat

e|------5----------------------------------------------------------------|
B|------5---5---10---9---------------------------------------------------|
G|------6---6---11---9---------------------------------------------------|
D|------7---6---11---9---------------------------------------------------|
A|------7---4---9----7---------------------------------------------------|
E|------5----------------------------------------------------------------|

this goes until Bruno Mars says "Ohh everytime i close my eyes..." 
it picks up from there going....


repeat D, E, F#m until "a different city every night..." then
you go A(high), G#m, F#m, E then finish the chours with D, E, A

Chorus: D   E  F#m Repeat til..  A(high) G#m F#m   E  then D   E   A
        
e|-----------------------------------------------------------------5-----|
B|------7---9---11---------------14------12---10---9-------7---9---5-----|
G|------7---9---11---------------14------13---11---9-------7---9---6-----|
D|------7---9---12---------------14------13---11---9-------7---9---7-----|
A|------5---7---9----------------12------11---9----7-------5---7---7-----|
E|-----------------------------------------------------------------5-----|


sorry if its all confusing xD ill show you again:



A                       C#m
I wanna be a billionaire so fricking bad
F#m                            E
buy all of the things I never had
A                                C#m
uh, I wanna be on the cover of Forbes magazine
F#m                             E
smiling next to Oprah and the Queen

[ Tab from: http://www.guitaretab.com/t/travis-mccoy/219340.html ]
D                 E       F#m
Oh every time I close my eyes
D                 E       F#m
I see my name in shining lights
D            E          A, G#m, F#m
A different city every night oh
E   D                      E
I swear the world better prepare
                   A
for when Iím a billionaire

....then you can continue using the verse chords. sorry if its off, have fun! :)


Yeah I would have a show like Oprah
I would be the host of, everyday Christmas
give Travie a wish list
Iíd probably pull an Angelina and Brad Pitt
and adopt a bunch of babies that ainít never had sh-t
give away a few Mercedes like here lady have this
and last but not least grant somebody their last wish
its been a couple months since Iíve single so
you can call me Travie Claus minus the Ho Ho
get it, hehe, Iíd probably visit where Katrina hit
and damn sure do a lot more than FEMA did
lyrics courtesy of www.Killerhiphop.com
yeah canít forget about me stupid
everywhere I go Imma have my own theme music


Oh every time I close my eyes
I see my name in shining lights
A different city every night oh
I swear the world better prepare
for when Iím a billionaire
oh oooh oh oooh for when Iím a Billionaire
oh oooh oh oooh for when Iím a Billionaire


Iíll be playing basketball with the President
dunking on his delegates
then Iíll compliment him on his political etiquette
toss a couple milli in the air just for the heck of it
but keep the fives, twentys (?) completely separate
and yeah Iíll be in a whole new tax bracket
we in recession but let me take a crack at it
Iíll probably take whatevers left and just split it up
so everybody that I love can have a couple bucks
and not a single tummy around me would know what hungry was
eating good sleeping soundly
I know we all have a similar dream
go in your pocket pull out your wallet
and put it in the air and sing


I wanna be a billionaire so fricking bad
buy all of the things I never had
uh, I wanna be on the cover of Forbes magazine
smiling next to Oprah and the Queen

I wanna be a billionaire so frickin bad!
Related for Billionaire chords
Billionaire chords by Travis Mccoy