Song name
# A B C D E F G H I J K L M N O P Q R S T U V W X Y Z

Travis Mccoy - Billionaire tab

Billionaire ft. Bruno Mars - Travie McCcoy
Good song

First tab so sorry if theres mistakes
Bass notes played with thumb, last 3 played with other 3 fingers
(All lines of xs are palm mutes)


     1.   I  wanna be a billionaire  so freakin  baad          By all of the things   I  never
     2. I wanna be on the cover of  Forbes magazine	     Smilin next to oprah and the
      A			    C#7			     F#m
E|---5--x--5----5--x--5-----4--x--4-----4--x--4-----9---x--9-----9---x--9--|
B|---5--x--5----5--x--5-----6--x--6-----6--x--6-----10--x--10----10--x--10-|
G|---6--x--6----6--x--6-----4--x--4-----4--x--4-----11--x--11----11--x--11-|
D|------x----------x-----------x-----------x------------x------------x-----|
A|------x----------x------4----x-----4----x-----9------x------9-----x-----|
E|-5----x-----5----x-----------x-----------x------------x------------x-----|

Had
queen
  E
---7--x--7-----7--x--7-------------|
---9--x--9-----9--x--9-------------|
---9--x--9-----9--x--9------------o|
------x-----------x----------------| (x2)
-7----x-----7-----x---------------o|
------x-----------x----------------|


  Every    time   I   close  my eyes (watcha see watcha see)
  I  see my name in shining lights  (yeah what else?)

   D	      E           F#m
|------x-----------x------------x--------------x--------|
|---7--x--7-----9--x--9-----9---x--9-------9---x--9-----|
|---7--x--7-----9--x--9-----10--x--10------10--x--10---o|
|---7--x--7-----9--x--9-----11--x--11------11--x--11----|(x2)
|-5----x-----7-----x-----9------x-------9------x-------o|
|------x-----------x------------x--------------x--------|


  A   different       city  every night I  swear the      world     better

   D	      E            A	  G#/A    F#m   E    D
|------x-----------x-----------------------------------x-------x----|
|---7--x--7-----9--x--9------14-----14----9-----9----7-x-7---7-x-7--|
|---7--x--7-----9--x--9------14-----14----10----9----7-x-7---7-x-7--|
|---7--x--7-----9--x--9------14-----14----11----9----7-x-7---7-x-7--|
|-5----x------7----x------12-----11-----9-----7----5---x---5---x----|
|------x-----------x-----------------------------------x-------x----|


Prepare for when Im a billionare
  C#7               A
-----x--------x------------------------------------|
---4-x-4----4-x-4----------------------------------|
---6-x-6----6-x-6----------------------------------|(start back at the beginning)
---4-x-4----4-x-4----------------------------------|
-4---x----4---x------------------------------------|
-----x--------x------------------------------------|

same progession throughout rest of the song.
Enjoy!
Tap to rate this tab
 
# A B C D E F G H I J K L M N O P Q R S T U V W X Y Z