Song name
# A B C D E F G H I J K L M N O P Q R S T U V W X Y Z

Treble Charger - I Dont Know chords

Highlighted       Show chord diagrams
Treble Charger
I Don't Know
Wide Awake Bored
2000
Submitted by: paramore_fans@yahoo.com

Key: A, D, E, B

Tuning: Standard EADGBe

Chords used:
A -    x02220
D -    xx0232
F#m -  244222
E -    022100
F -    133211
C -    x32010
G/B -  x2x003
C/E -  032xxx
Dm -   xx0231
D/F# - 2x023x
G -    320033
Bb -   x13331
C#m -  x46654
G#m -  466444
B -    x24442


Intro: A-D-F#m-D- x2

Guitar 2:
e|-----0-----0-0h2p0------------|
B|-2-3---2-3---------3--2--3--2-|
G|------------------------------|
D|------------------------------| x4
A|------------------------------|
E|------------------------------|


Verse 1:
  A
I know that I have 
    D
to sleep at night
       F#m
And we all need
           D
someone to blame
A
No one ever 
       D
has to realize
        F#m
That we all get 
       D
tired again


Refrain 1: Bass only
  C  
I think I've been 
G/B     A   F
cast in the wrong play
   C/E   Dm   C
My lines were written 
       G/B   A
on the day before


Chorus 1:
    E A
Now I see there's 
G
nothing out there
     D/F#
That I don't know
    F
but I don't know
   E   A       G
It can be such empty logic
     D/F#
That I don't know
F
I don't know


Interlude: A-D-F#m-D-


Verse 2:
A
In the time it
         D
takes to understand
     F#m
Is a pause where 
              D
we like to complain
A
Noone is required 
   D
to take a stand
       F#m
And we all get 
          D
time to explain


Refrain 2: Bass Only
  C
I think I left 
G/B       A F
something behind
    C/E  Dm    C
The lime green plastic 
      G/B    A F
olive branch before


(Repeat Chorus 1)


Bridge:
D
  All at once it's 
   A
a special favour
G
  Wave a hand and it's 
Bb               D
all arranged for you
Though we know you're 
   A
no bleeding saviour
   G                 Bb-- A----
We listen close it's true


Guitar Solo: C#m--A--C#m--G#m--C#m--A--F#m--A--


Chorus 2: Modulate from A to B
      B
I can see there's 
A
nothing out there
     G#m
That I don't know
    G
but I don't know
       B       A
It can be such empty logic
     G#m
That I don't know
G
I don't know


Outro:
B A        G#m G
   I don't know
        B   A
I don't know
        G#m A
I don't know


Guitar Solo: B-A-G#m-G- x4

Guitar 2:
e|---0-2---0-2-2h4p2-0-----0-------0-2---0-2-2h4p2-0---------|
B|-4-----4--------------4-----4--4-----4-------------3--2--0-|
G|-----------------------------------------------------------|
D|-----------------------------------------------------------| x2
A|-----------------------------------------------------------|
E|-----------------------------------------------------------|
Tap to rate this tab
# A B C D E F G H I J K L M N O P Q R S T U V W X Y Z