Song name
# A B C D E F G H I J K L M N O P Q R S T U V W X Y Z

Tree 63 - Have Your Way tab

h = hammer on
p = pull off

INTRO:
    C       G                Am        F        C           G
e---0------------0----------------------------------------------------|
G-------1---3--------3-------0h1-------1--------------------3---------|
B-----0---0----0---0-----0---------2-------0h2--0-0-------------0-----|
D---3-------2----------0---0-----2---2---3----------0h2p0-----0---0---|
A----------------------------0-------------3----3---------3-----------|
E--------------------3-----------------1--------------------3-------3-|


Verse:
    C       G                Am        F        C           G
e---0------------0----------------------------------------------------|
G-------1---3--------3-------0h1-------1--------1-----------3---------|
B-----0---0----0---0-----0---------2-------2--------0-----------0-----|
D---3-------2----------0---0-----2---2---3---3----2---2-------0---0---|
A----------------------------0------------------3---------------------|
E--------------------3-----------------1--------------------3-------3-|

Chorus:
   G       C       F       C       F       C       F       C
e---------------------------------------------------------------------|
G--3-------1-------1-------1-------1-------1-------1-------0h1--------|
B------0-------0-------2-------0-------2-------0-------2---------0----|
D----0---0---2---2---3---3---2---2---3---3---2---2---3---3-----2---2--|
A----------3---------------3---------------3---------------3----------|
E--3---------------1---------------1---------------1------------------|

   G       C       F       C       F       C       G       C
e---------------------------------------------------------------------|
G--3-------1-------1-------1-------1-------1-------3---3---1----------|
B------0-------0-------2-------0-------2-------0----------------------|
D----0---0---2---2---3---3---2---2---3---3---2---2---0----------------|
A----------3---------------3---------------3---------------3----------|
E--3---------------1---------------1---------------3---3--------------|

Intro again
Verse 2 (tab as v.1)
Chorus
Tap to rate this tab
# A B C D E F G H I J K L M N O P Q R S T U V W X Y Z