Song name
# A B C D E F G H I J K L M N O P Q R S T U V W X Y Z

Tree 63 - Blessed Be The Name tab

-----------------------------------------------------------------------------
			     Blessed be the name - Tree63
-----------------------------------------------------------------------------
Tabbed by: tel105
Email: tlewis_@yahoo.com

Just repeat these chords throughout the song.

Tuning: Normal
    C#     G#       A#m     F#
e|---4-------4-------6-------2-----------------------------------------------|
B|---4-------4-------6-------2-----------------------------------------------|
G|---6-------5-------6-------3-----------------------------------------------|
D|---6-------6-------8-------4-----------------------------------------------|
A|---4-------6-------8-------4-----------------------------------------------|
E|---4-------4-------6-------2-----------------------------------------------|

| /  slide up
| \  slide down
| h  hammer-on
| p  pull-off
| ~  vibrato
| +  harmonic
| x  Mute note
=============================================================================
Tap to rate this tab
 
# A B C D E F G H I J K L M N O P Q R S T U V W X Y Z