Song name
# A B C D E F G H I J K L M N O P Q R S T U V W X Y Z

Trevor Hall - Jago Ma tab

-------------------------------------------------------------------------------
			     Jago Ma - Trevor Hall
-------------------------------------------------------------------------------
Tabbed by: Mike
Email: sturgio2183@hotmail.com

Tuning: Standard

e|---------------------------------------------------------------------------------|
B|---------------------------------------------------------------------------------|
G|---4--4-4--4---------------------------------------------------------------------|
D|---5--5-7--5---------------------------------------------------------------------|
A|---7--7-5--7---------------------------------------------------------------------|
E|---0--0-0--0---------------------------------------------------------------------|

Listen for strumming patterns.  Sudden changes from the 2 chords.
Ending consists of strumming the chords in full with vocal effects.
Tap to rate this tab
 
# A B C D E F G H I J K L M N O P Q R S T U V W X Y Z