Song name
# A B C D E F G H I J K L M N O P Q R S T U V W X Y Z

Trevor Rabin - The Ritual tab

i was playing by ear i don't know if its right but oh well
song:The Ritual
artist:Trevor Rabin
album:The One Soundtrack
Tuning E Standard

intro
e|-10-12-13~----10-12-13--------------10-12-13------------------------------|
b|------------------------10-11-13~-------------10-11-13--------------------|
g|-------------------------------------------------------10-11-14-----------|
d|----------------------------------------------------------------12-11-10--|
a|--------------------------------------------------------------------------|
E|--------------------------------------------------------------------------|
rest of the song
e|-10-12-13-------------------------------------------------10-12-13--------|
b|--------------10-11-13---------10-11-13-----------------------------------|
g|----------------------------------------10-11-14--------------------------|
d|-------------------------------------------------12-11-10-----------------|
a|--------------------------------------------------------------------------|
E|--------------------------------------------------------------------------|
Tap to rate this tab
# A B C D E F G H I J K L M N O P Q R S T U V W X Y Z