Song name
# A B C D E F G H I J K L M N O P Q R S T U V W X Y Z

Trick Daddy - Lets Go tab

I noticed most ppl have the riff right, but no one has to solo correct, so here it
is...But this version of LETS GO is all correct, and is meant to be played with a
band, with Drums, and 1-3 vocalists who can rap.

Tabbed By: The One And ONLY ~Bc Chronic~
Tuning:Standard
Band/Singer: Trick Daddy
Song: Lets go

to be played: 1-3 vocalists
              drums
              2 guitars (one guitar for the whole song
                         until the solo)

Intro: no distortion (PM if you feel special)

|------------------------|---------------|
|------------------------|---------------|
|----------2-2-----------|-----7-7-------|  x2
|-4-4------2-2--2-2--4-4-|-----7-7--2-2--|
|-4-4------0-0--2-2--4-4-|-----5-5--2-2--|
|-2-2------0-0--0-0--2-2-|-----0-0--0-0--|

Main riff and Chorus: With Distortion

|------------------------|---------------|
|------------------------|---------------|
|----------2-2-----------|-----7-7-------|
|-4-4------2-2--2-2--4-4-|-----7-7--2-2--|  x9
|-4-4------0-0--2-2--4-4-|-----5-5--2-2--|
|-2-2------0-0--0-0--2-2-|-----0-0--0-0--|

then when twista's part comes in it goes like this...

Riff 2: No distortion and PM if you want to
|------------------------|---------------|
|------------------------|---------------|
|----------2-2-----------|-----7-7-------|  x2
|-4-4------2-2--2-2--4-4-|-----7-7--2-2--|
|-4-4------0-0--2-2--4-4-|-----5-5--2-2--|
|-2-2------0-0--0-0--2-2-|-----0-0--0-0--|

then Main Riff again: With Distortion

|------------------------|---------------|
|------------------------|---------------|
|----------2-2-----------|-----7-7-------|
|-4-4------2-2--2-2--4-4-|-----7-7--2-2--|  x3
|-4-4------0-0--2-2--4-4-|-----5-5--2-2--|
|-2-2------0-0--0-0--2-2-|-----0-0--0-0--|

then 

|------------------------|-------|
|------------------------|-------|
|----------2-2-----------|-----7/|
|-4-4------2-2--2-2--4-4-|-----7/|
|-4-4------0-0--2-2--4-4-|-----5/|  slide down the chords kinda slow
|-2-2------0-0--0-0--2-2-|-----0/|

then this, With Distortion

|------------------------|---------------|
|------------------------|---------------|
|----------2-2-----------|-----7-7-------|
|-4-4------2-2--2-2--4-4-|-----7-7--2-2--|
|-4-4------0-0--2-2--4-4-|-----5-5--2-2--|
|-2-2------0-0--0-0--2-2-|-----0-0--0-0--|

|------------------------|----------|
|------------------------|----------| you just replace the last little
|----------2-2-----------|-----7-7--| power cords with "Bitch! Dont 
|-4-4------2-2--2-2--4-4-|-----7-7--| pretend to be..WHAT!?"
|-4-4------0-0--2-2--4-4-|-----5-5--|
|-2-2------0-0--0-0--2-2-|-----0-0--|

then Main Riff again: With Distortion

|------------------------|---------------|
|------------------------|---------------|
|----------2-2-----------|-----7-7-------|
|-4-4------2-2--2-2--4-4-|-----7-7--2-2--|  x6
|-4-4------0-0--2-2--4-4-|-----5-5--2-2--|
|-2-2------0-0--0-0--2-2-|-----0-0--0-0--|

then IMMEDIATLY after that Riff it goes to solo

Guitar 2
|-----9-10-9-7-------------------|
|-7-7--7--7----10-10-9--10-10-9-6|
|--------------------------------|  x9
|--------------------------------|
|--------------------------------|
|--------------------------------|

Guitar 1
|------------------------|---------------|
|------------------------|---------------|
|----------2-2-----------|-----7-7-------|
|-4-4------2-2--2-2--4-4-|-----7-7--2-2--|  x9
|-4-4------0-0--2-2--4-4-|-----5-5--2-2--|
|-2-2------0-0--0-0--2-2-|-----0-0--0-0--|

So theres the whole song....Got any comments, email me at bluntman518@hotmail.com
Tap to rate this tab
# A B C D E F G H I J K L M N O P Q R S T U V W X Y Z