Song name
# A B C D E F G H I J K L M N O P Q R S T U V W X Y Z

Tristania - Lotus tab

PTL

                                   Tristania – Lotus
                            From the album “Illumination”

By Sanjeev George and Thomas George
Contact at SanjeevGeorge123@yahoo.co.in

We did this simply because the music, the song sounds nice. Not because we like tristania
We DON’T LIKE any band that blasphemes against Jesus.

Tuning: Drop D

| / and \ slide up or down
| h  hammer-on
| p  pull-off
| ~  hold note ands let ring
| v  vibrato


Riff/Part A:
e|----------0----------1----------0------1p0----------------------|
B|--------3----------3----------3------------3—1h3----------|
G|------2----------2----------2-----------------------------------|
D|----0----------0----------0----------0--------------------------|
A|----------------------------------------------------------------|
D|----------------------------------------------------------------|

Riff/Part B:
e|------1p0--------1p0-------------------|
B|----------3----------3—1h3-------|
G|---------------------------------------|
D|----0----------0-----------------------|
A|---------------------------------------|
D|---------------------------------------|

Riff/Part C:
e|------1p0---------|
B|----------3v------|
G|------------------|
D|----0-------------|
A|------------------|
D|------------------|

Part D:
e|-------------------------------------------------------------------------|
B|-------------------------------------------------------------------------|
G|-----------------------------------7-7-7-7-7-7-7-7-7-7-7-7-7-7-7-7-------|
D|-3-3-3-3-3-3-3-3--5-5-5-5-5-5-5-5--7-7-7-7-7-7-7-7-7-7-7-7-7-7-7-7-------|
A|-3-3-3-3-3-3-3-3--5-5-5-5-5-5-5-5--5-5-5-5-5-5-5-5-5-5-5-5-5-5-5-5-------|
D|-3-3-3-3-3-3-3-3--5-5-5-5-5-5-5-5----------------------------------------|

Part E:
e|-------------------------------------------------------------------------|
B|-------------------------------------------------------------------------|
G|-------------------------------------------------------------------------|
D|-3-3-3-3-3-3-3-3--5-5-5-5-5-5-5-5--0-0-0-0-0-0-0-0-0-0-0-0-0-0-0-0-0-----|
A|-3-3-3-3-3-3-3-3--5-5-5-5-5-5-5-5--0-0-0-0-0-0-0-0-0-0-0-0-0-0-0-0-0-----|
D|-3-3-3-3-3-3-3-3--5-5-5-5-5-5-5-5--0-0-0-0-0-0-0-0-0-0-0-0-0-0-0-0-0-----|

Part F:
e|----------------------------------------------------------------------------------------------|
B|--10-10-10--8-8-8--11-11--10-10-10--8-8-8--11-11--10-10-10--8-8-8---11-11--10-10-10-8-8-------|
G|--7--7--7--7-7-7--7--7---7--7--7---7-7-7--7--7---7--7--7---7-7-7---7--7---7--7--7--7-7-7---9--|
D|----------------------------------------------------------------------------------------7-7---|
A|----------------------------------------------------------------------------------------------|
D|----------------------------------------------------------------------------------------------|

e|-----------------------------------------------------------------------------------------------|
B|--10-10-10--8-8-8--11-11--10-10-10--8-8-8--11-11--10-10-10--8-8-8---11-11--10-10-10-8-8-8-8-8--|
G|--7--7--7--7-7-7--7--7---7--7--7---7-7-7--7--7---7--7--7---7-7-7---7--7---7--7--7--7-7-7-7-7---|
D|-----------------------------------------------------------------------------------------------|
A|-----------------------------------------------------------------------------------------------|
D|-----------------------------------------------------------------------------------------------|

E|------------------------------------------------------------------------------------------------|
B|--10-10-10--8-8-8--11-11--10-10-10--8-8-8--11-11--10-10-10--8-8-8--11-11--10-10-10-8-----8------|
G|--7--7--7--7-7-7--7--7---7--7--7---7-7-7--7--7---7--7--7---7-7-7--7--7---7--7--7--7--10---9-10--|
D|------------------------------------------------------------------------------------------------|
A|------------------------------------------------------------------------------------------------|
D|------------------------------------------------------------------------------------------------|

E|------------------------------------------------------------------------------------------------|
B|--10-10-10--8-8-8--11-11--10-10-10--8-8-8--11-11--10-10-10--8-8-8--11-11--------------8---------|
G|--7--7--7--7-7-7--7--7---7--7--7---7-7-7--7--7---7--7--7---7-7-7--7--7---10-10-10-10---9-10-7v--|
D|--------------------------------------------------------------------------10-10-10--------------|
A|------------------------------------------------------------------------------------------------|
D|------------------------------------------------------------------------------------------------|


Part G:
e|-----------------------------------------------------------------------------|
B|-----------------------------------------------------------------------------|
G|---------------------------------------------7-7-7-7-7-7-7-7-7-7-7-7-7-7-7-7-|
D|-x-x-x-x-x-3-3-3-3-3-3-3-3--5-5-5-5-5-5-5-5--7-7-7-7-7-7-7-7-7-7-7-7-7-7-7-7-|
A|-x-x-x-x-x-3-3-3-3-3-3-3-3--5-5-5-5-5-5-5-5--5-5-5-5-5-5-5-5-5-5-5-5-5-5-5-5-|
D|-x-x-x-x-x-3-3-3-3-3-3-3-3--5-5-5-5-5-5-5-5----------------------------------|


Part H:
e|------------------------------------------------------------------------------------|
B|------------------------------------------------------------------------------------|
G|------------------------------------------------------------------------------------|
D|----------5-5-5/7-7---5/8-8--7----5-5-5/7-7---5/8-8--7---0h2—-2/3—-3/5--|
A|----5/\---5-5-5/7-7---5/8-8--7----5-5-5/7-7---5/8-8--7---0h2—-2/3—-3/5--|
D|----5/\---5-5-5/7-7---5/8-8--7----5-5-5/7-7---5/8-8--7---0h2—-2/3—-3/5--|

Part I:
e|--------------------------------------------------------------|
B|--------------------------------------------------------------|
G|--------------------------------------------------------------|
D|-5-5-5/7-7---5/8-8--7----5-5-5/7-7---5/8-8--7---5\3-3\2-2/3---|
A|-5-5-5/7-7---5/8-8--7----5-5-5/7-7---5/8-8--7---5\3-3\2-2/3---|
D|-5-5-5/7-7---5/8-8--7----5-5-5/7-7---5/8-8--7---5\3-3\2-2/3---|


Part J:
e|------------------------------------------||-------------------------------------------|
B|------------------------------------------||-------------------------------------------|
G|------------------------------------------||-------------------------------------------|
D|--5/7-7---5-7-----5/7-7-----2----1--------||--5/7-7---5-7-----5/7-7-----0--1----0~-----|
A|--5/7-7---5-7-----5/7-7-----2----1--------||--5/7-7---5-7-----5/7-7-----0--1----0~-----|
D|--5/7-7---5-7-----5/7-7-----2----1--------||--5/7-7---5-7-----5/7-7-----0--1----0~-----|

Solo:
e|---------------------------------------------------------|
B|---------------------------------------------------------|
G|-----------9-9v--------------------9-9v----8v-5-5\-------|
D|-----5/7-7--------7\5/7v-----5/7-7-------7---------------|
A|---------------------------------------------------------|
D|---------------------------------------------------------|

e|---------------------------------------------------------|
B|---------------------------------------------------------|
G|-----------9-9v--------------------9-9v----8v----7v------|
D|-----5/7-7--------7\5/7v-----5/7-7-------7---------------|
A|---------------------------------------------------------|
D|---------------------------------------------------------|


Song Structure:

Intro and verse 1: Guitar 1=Riff A x 5 times
                            Riff B x 1 time

Chorus: Guitar 2 = Part D ----|
                              |----x 2 times
                   Part E ----|

        Guitar 1 = Part F x 1 times

Verse2: Guitar 1 = Riff A x 4 times
                   Riff C x 1 time

Chorus: Guitar 1 = Part G x 1 time
                   Part E x 1 time
                   Part D x 1 time
                   Part E x 1 time

        Guitar 2 = Part F x 1 time

Bridge: Guitar 2 = Part H----|
                             |--1 time
                   Part I----|


Solo: Guitar 1
      Guitar 2= Part J

After solo: Guitar 1 = Riff C x 4 times
Chorus
Outro: Riff A x 2 times

Please rate if you liked it. Thank you
Tap to rate this tab
 
# A B C D E F G H I J K L M N O P Q R S T U V W X Y Z