Guitaretab - guitar tabs
Song name
# A B C D E F G H I J K L M N O P Q R S T U V W X Y Z

Triumph - Tears In The Rain tab

ill do a guitar pro version too

this song is VERY easy to play
the chorus with the kayboards is pretty much the same as the main riff

PM = Palm mute          S = slide          b = bend


Main Riff

   PM.PM     PM.PM      PM PM
E-----------------------------------------------------------------------|
A-----------------------------------------------------------------------|
D--9-9-9s7---7-7-7s5----9-9-9-7---7-----5-------------------------------|
G--9-9-9s7---7-7-7s5----9-9-9-7---7-----5-------------------------------|
B--7-7-7s5---5-5-5s3----7-7-7-5---5-----3-------------------------------|
E-----------------------------------------------------------------------|

Guitar Fill (1:22)

E------------------------------|
B-------b15(16)---b15----------|
G-------------16------15d------|

guitar solo
[ Tab from: http://www.guitaretab.com/t/triumph/158674.html ]
E--10b--10---------------------------------17b-17-16-15-14-13-14-16b-14----|
B-----------8s10b--8-10b--8-7-8-7------------------------------------------|
G----------------------------------7-9-------------------------------------|
D--------------------------------------9s1---------------------------------|
A--------------------------------------------------------------------------|
E--------------------------------------------------------------------------|

E-----------15----------------------THIS PART--------------------------------|
B--12-14-15B----15-12---------------IS TAPPING-------------------------------|
G-----------------------------------AND I DONT KNOW IT--FULLY YET------------|
D-----------------------------------SO I WONT ADD----------------------------|
A----------------------------------------------------------------------------|
E----------------------------------------------------------------------------|
Related for Tears In The Rain tab
Advertisement will be closed in 10 seconds