Song name
# A B C D E F G H I J K L M N O P Q R S T U V W X Y Z

Trivium - Like Callisto To A Star In Heaven tab

This song and insurrection are the only songs on the new trivium album Shogun that DO 
contain seven string guitar work.

please comment any corrections

intro
|--------------------------------------------------|
|--------------------------------------------------|
|---------------7-9--------------------7-9---------|
|----9-7--5-7-9-----10------9-7--5-7-9-----10-9-9--|
|-7----------------------7-------------------------|
|--------------------------------------------------|

Riff 1                                     first time ending   second time ending
|-----------------------------------------|-----------------|-------------------------|
|-----------------------------------------|-----------------|-------------------------|
|-----------------------------------------|-----------------|-14-14-14-14-13-13-13-13-|
|-----------------------------------------|-----------------|-------------------------|
|-----7---5h8-----7---5h8-----7---5h8-----|-------3-2-------|-12-12-12-12-11-11-11-11-|
|-0-0---0-----0-0---0-----0-0---0-----0-0-|-4-3-4-----4-3-1-|-------------------------|

Verse (unclear on this; soemthing along these lines)
|---------------------------------------------------------------|
|---------------------------------------------------------------|
|---------------------------------------------------------------|
|-------------------------------------------------------------3-|
|-------------------------------------------------------------3-|
|-0-0-0-0-0-0-0-0-(fill unclear)-0-0-0-0-0-0-0-0-0-0-0-0-0000-1-|

Verse part II                    first & third time ending      second time ending
|-------------------------------|-----------------------------|---------------------------|
|-------------------------------|-----------------------------|---------------------------|
|-------------------------------|-----------------------------|---------------------------|
|-2-----3-----------5-------6---|-2-----3---------------2-3-2-|-2-----3-------------------|
|-2-----3-----------5-------6---|-2-----3---------3---3-------|-2-----3-------------------|
|-0-0-0-1p0-0-0-0-0-3p0-0-0-4p0-|-0-0-0-1p0-0-0-4---4---------|-0-0-0-1p0-0-0-00000-00000-|

fourth ending is same as first and third except plays fill twice and on second fill it octaves

Intro as pre chorus

Dont have chorus

Riff 1

Verse

Verse part II

Intro (pre chorus)

Chorus (not done)
Chorus second time has intro/prechrous


Breakdown

rhythm guitar is just power chord E the whole way so just figure out the timing excpet 
last bar where it finishes with
|-------------|
|-------------|
|-------------|
|-6-5-3-5-3-2-|
|-6-5-3-5-3-2-|
|-4-3-1-3-1-0-|

Lead guitar is same rhythm
|-----------------------------------------------|
|-----------------------------------------------|
|-9-9--9-9--999999--10-1010-10-10-13-13--16-16--|
|-----------------------------------------------|
|-7-7--7-7--777777--8--8-8--8--8--11-11--14-14--|
|-----------------------------------------------|
Tap to rate this tab
# A B C D E F G H I J K L M N O P Q R S T U V W X Y Z