Song name
# A B C D E F G H I J K L M N O P Q R S T U V W X Y Z

Trivium - Built To Fall Acoustic tab

Title: Trivium - Built To Fall Acoustic solo
Tabbed by: MetallAndy
Video of me playing it: http://youtu.be/eaFKlKEHClM (I'm playing it in Bb tuning, and 
it's not exactly the same as this tab. This tab is more accurate)

/    = slide from lower frets
\    = slide from higher frets
~    = virbato


D#|--------------------------------------|
A#|--------10/13-11-10-------------------|
F#|-/7--7-------------12-10-12-14-12-12~-|
C#|--------------------------------------|
G#|--------------------------------------|
C#|--------------------------------------|

  |--SWEEP--|
D#|-------13-12--------------------------|
A#|----15-------13-----------------------|
F#|-14-------------14--------------------|
C#|-------------------14/15-14-12\10-----|
G#|----------------------------------\5~-|
C#|--------------------------------------|

D#|-------------------------------------------10-13-10----|
A#|------------------6------------10-------------------13-|
F#|--------------5-7---7-5-7~-/10----10-7-10~-------------|
C#|----3---3h5/7------------------------------------------|
G#|--5---5------------------------------------------------|
C#|-------------------------------------------------------|

D#|------------------------------------------------------------------|
A#|-------------------------6h10p6----/13-11--10\8-8\6--8-6-/10-8-8~-|
F#|---------7h9p7-------7h9--------7---------------------------------|
C#|-----7h8-------8-7h8----------------------------------------------|
G#|-7h8--------------------------------------------------------------|
C#|------------------------------------------------------------------|

D#|------------------------10----10--------\10----10-----------|
A#|-10-----------8------------13----13-10~-----13----13-10-----|
F#|----10----10----9----9----------------------------------12--|
C#|-------12---------10----------------------------------------|
G#|------------------------------------------------------------|
C#|------------------------------------------------------------|

D#|-------------------------------|
A#|--\10----10--------------------|
F#|------12----12-10-/10-9--------|
C#|------------------------12-10--|
G#|-------------------------------|
C#|-------------------------------|
Tap to rate this tab
# A B C D E F G H I J K L M N O P Q R S T U V W X Y Z